Log in

One click and you are in

Login with Facebook Login with Google

Why sign up and log in

Guitar Tabs Explorer
Ozma bass tabs for Korobeiniki

Bass tabs with lyrics

---------------------------------------
-- Korobeiniki (Russian Folk Song)
-- As Performed by Ozma
-- Guitar Tabs
--
-- Tabbed by D Rybes
-- <annelid@ppzclan.com>
---------------------------------------

Most people probably know this song as the Tetris theme; reguardless Ozma's
version is a fun and easy heavy rocker to play. This tab represents all my
own work, as I interpret the bassline by ear. Many times it seems like more
than one instrument is playing in the bass range, this is because the song
uses three guitars with high distortion. The bass stays clean, though.
Tuning: Half a step down  Eb Ab Db Gb

 = a slight slide downward which appears in a few places, keep it subtle.
h = hammer-on


Intro
-----

Gb|-----------------|-----------------|
Db|-----------------|-----------------|
Ab|-0-0-0-0-0-0-0-0-|-0-0-0-0-0-0-0-0-|
Eb|-----------------|-----------------|


Ascending Riff
--------------

Gb|-----------------|-----------------|-----------------|-----------------|
Db|-----------------|-----------------|-----------------|-----------------|
Ab|-0-0-0-0-0-0-0-0-|-0-0-0-0-0-0-0-0-|-0-0-0-0-0-0-0-0-|-0-0-0-0-0-0-0-0-|
Eb|-----------------|-----------------|-----------------|-----------------|

Gb|-----------------|-----------------|-----------------|-----------------|
Db|-----------------|-----------------|-----------------|-----------------|
Ab|-0-0-0-0-0-0-0-0-|-2-2-2-2-2-2-2-2-|-3-3-3-3-3-3-3-3-|-7-7-7-7-7-------|
Eb|-----------------|-----------------|-----------------|-----------------|

Ascending Riff Variation 1
--------------------------

Gb|-----------------|-----------------|-----------------|-----------------|
Db|-----------------|-----------------|-----------------|-----------------|
Ab|-0-0-0-0-0-0-0-0-|-2-2-2-2-2-2-2-2-|-3-3-3-3-3-3-3-3-|-5-5-5-5-5-5-5-5-|
Eb|-----------------|-----------------|-----------------|-----------------|

Gb|-----------------|-----------------|-----------------|-----------------|
Db|-2-2-2-2-2-2-2-2-|-3-3-3-3-3-3-3-3-|-4-4-4-4-4-4-4-4-|-6-6-6-6-6-------|
Ab|-----------------|-----------------|-----------------|-----------------|
Eb|-----------------|-----------------|-----------------|-----------------|


Ascending Riff Variation 2
--------------------------

Gb|-----------------|-----------------|-----------------|-----------------|
Db|-----------------|-----------------|-----------------|-----------------|
Ab|-0-0-0-0-0-0-0-0-|-2-2-2-2-2-2-2-2-|-3-3-3-3-3-3-3-3-|-7-7-7-7-7-7-7-7-|
Eb|-----------------|-----------------|-----------------|-----------------|

Gb|-------------9--9--------|-------------10-10-------|-------------11-11-------|
Db|-------9--9--------9--9--|-------10-10-------10-10-|-------11-11-------11-11-|
Ab|-7--7--------------------|-8--8--------------------|-9--9--------------------|
Eb|-------------------------|-------------------------|-------------------------|

Gb|-------------------------|
Db|-------------------------|
Ab|-11-11-11-11-11----------|
Eb|-------------------------|


Chorus Riff
-----------

Gb|-----------------|-----------------|-----------------|-----------------|
Db|-----------------|-----------------|-----------------|-----------------|
Ab|-----------------|-0-0-0-0-0-0-----|-----------------|-0---0---0-----3-|
Eb|-0-0-0-0-0-0-0-0-|-------------3-2-|-0-0-0-0-0-0-0-0-|-----------------|

Gb|-----------------|-----------------|-----------------|-----------------|
Db|-0-0-0-0-0-0-----|-----------------|-----------------|-----------------|
Ab|-------------3-2-|-0-0-0-0-0-0-----|-----------------|-0---0---0-------|
Eb|-----------------|-------------3-2-|-0-0-0-0-0-0-0-0-|-----------------|


Chorus Riff Variation 1
-----------------------

Hold these notes for their full duration!

Gb|-----------------|-----------------|-----------------|-----------------|
Db|-----------------|-----------------|-----------------|-----------------|
Ab|-11--------------|-12---------14-12|-11----------11--|-12-0---0-------|
Eb|-----------------|-----------------|---------12------|-----------------|

Gb|-----------------|-----------------|-----------------|-----------------|
Db|-----------------|-----------------|-----------------|-----------------|
Ab|-5-----------3-2-|-0---------------|-----------------|-0---0---0-------|
Eb|-----------------|-------------3-2-|-0---------------|-----------------|


Chorus Riff Variation 2
-----------------------

These notes are not held the length of the measure.

Gb|-----------------|-----------------|-----------------|-----------------|
Db|-----------------|-----------------|-----------------|-----------------|
Ab|-----------------|-0-0-------------|-----------------|-----------------|
Eb|-0-0-------------|-----------------|-0-0-------------|-5-5-----5------|

Gb|-----------------|-----------------|-----------------|-----------------|
Db|-----------------|-----------------|-----------------|-----------------|
Ab|-5---5----------|-0-0-------------|-----------------|-0-0-----0-0-0-0-|
Eb|-----------------|-----------------|-0-0-------------|-----------------|


Outro
-----

Hold the long notes their full duration.

Gb|-----------------|-----------------|-----------------|-----------------|
Db|-9---4-5-7---9---|-10-~~~----------|-----------------|-----------------|
Ab|-----------------|-----------------|-----------------|-------7h8-----7-|
Eb|-----------------|-----------------|-----------------|-1---------------|

Gb|-----------------|-----------------|-----------------|-----------------|
Db|-----------------|-----------------|-----------------|-------------7---|
Ab|h8---7---8-------|-9-~~~-----------|-------------7---|-3---0---0-------|
Eb|-----------------|-----------------|-----------------|-----------------|

Gb|-----------------|-----------------|-------------|
Db|-3---0---0---10--|-12--9-----------|-------------|
Ab|-----------------|---------12--11--|-12-0---0---|
Eb|-----------------|-----------------|-------------|


Song Structure
--------------


Intro (x3)
Ascending Riff

Chorus Riff

Chorus Riff Variation 1
Ascending Riff Variation 1

Chorus Riff

Intro (x6)
Ascending Riff Variation 2

Chorus Riff Variation 2

Chorus Riff Variation 1

Outro


--------------------------------------
-- Tabbed by D Rybes
-- <annelid@ppzclan.com>
-- E-mail with questions or comments
--------------------------------------

Almost there ...

Sign in to get your own page with links to favourite songs and more. You are just one click away...

Login with Facebook Login with Google