Log in

One click and you are in

Login with Facebook Login with Google

Why sign up and log in

Guitar Tabs Explorer
Ozma tabs for Domino effect

Guitar tabs

Tabbed By: Michelle G. CyberPunk5k
Band:      OZMA
Album:     Rock and Roll Part Three


Intro/Keys:
(Tabbed for the guitar)
||-------------------------|---------2-0-0---------------------------||
||-2-0---2-2-3-0-0-----0-0-|-2-----2-------3-3-2----0-3-3-3-2-2-1-2--||
||-----2-----------2-1-----|---2-2---------------1-1-----------------||
||-------------------------|-----------------------------------------||
||-------------------------|-----------------------------------------||
||-------------------------|-----------------------------------------||
||-5-7-4-------4-5-4---9-10-7-6-7---7-9-5-4-5-4-------------||
||-------7-6-7-------7------------5-------------7--5-3--2-0-||
||----------------------------------------------------------||
||----------------------------------------------------------||
||----------------------------------------------------------||
||----------------------------------------------------------||


Repeat the beginning, but right after the break in the

riff, come to this riff:
|---------------||
|-1-------------||
|---2-2-0---0-2-||
|---------3-----||
|---------------||
|---------------||

Other versions of Domino Effect

Domino effectChords

Almost there ...

Sign in to get your own page with links to favourite songs and more. You are just one click away...

Login with Facebook Login with Google