Log in

One click and you are in

Login with Facebook Login with Google

Why sign up and log in

Guitar Tabs Explorer
Oysterhead bass tabs for Little faces

Bass tabs with lyrics

Artist - Oysterhead
Song - Little Faces
Album - The Grand Pecking Order
Transcribed by Matthew LaClair (Chizakk@aol.com)
This file is entirely the author's own work,
it may be distributed freely as long
as proper credit is given etc.

Okay, it's hard to get this one to sound like Les; I dial out
all the low and mid range with plenty of high end and just a bit
of distortion and it sounds pretty close.

S=Slap
P=Pop
x=Mute
h=Hammer on
p=pull off
Intro/Verse

G|--------------|------------------------------| repeat as
D|--------------|------------------------------| needed
A|----------2---|----3-----3-----4-----3-----2-|
E|--x--x--0---0-|--0---0h4---0h5---0h4---0h3---|

  S S S P S  S P S P S P S P S P


Chorus

G|---------------------|
D|---------------------|
A|---------------------|
E|---3-------------5---|

   Little faces keep no track of...


Bridge

G|---------------|--------------------------------|
D|---------------|--------------------------------|
A|----------2----|----5p0---3p0---2p0---2p0---2p0-|
E|--x--x--0---0--|--0-----0-----0-----0-----0-----|


That should be pretty much all you need to know, listen
to the CD to get the timing and the order. I know this
tab isn't perfect but it's pretty close and remember, you're
only reading this because you didn't want to take the time to
learn it yourself. Above all, have fun.

P.S. If anyone has Oz is Ever Floating worked out yet, I'd be
grateful if you sent it my way.

Almost there ...

Sign in to get your own page with links to favourite songs and more. You are just one click away...

Login with Facebook Login with Google