Log in

One click and you are in

Login with Facebook Login with Google

Why sign up and log in

Guitar Tabs Explorer
Oxygen tabs for Feeder

Guitar tabs

Artist/Band: Feeder
Album: Echo Park
Guitar Settings: Bright,clean treble heavy.

This is a really easy song to play as it not very difficult.  It starts with
a short repitive riff.
Verse:

  A chord diagramB5B5                                A chord diagramC5C5

e--------------------------------------------
b--------------------------------------------
g-------0-0---0---0----------0-0----0---0-
d----4---------------------5----------------
a-2---------2---2------3----------3----3---
e--------------------------------------------

On the last line of every verse you need to repeat
the A chord diagramC5C5 chord twice and let it run into the chorus.


Chorus:

e-------------------------------------------------------------------
b------------------7-7-7-7-7-7-7-7-------------------5-5-5-5-5-5-5-5
g-4-4-4-4-4-4-4-4--7-7-7-7-7-7-7-7--5-5-5-5-5-5-5-5--5-5-5-5-5-5-5-5
d-5-5-5-5-5-5-5-5--7-7-7-7-7-7-7-7--7-7-7-7-7-7-7-7--5-5-5-5-5-5-5-5
a-5-5-5-5-5-5-5-5--5-5-5-5-5-5-5-5--7-7-7-7-7-7-7-7--3-3-3-3-3-3-3-3
e-3-3-3-3-3-3-3-3-------------------5-5-5-5-5-5-5-5-----------------

Repeat this twice then it goes back to the verse and then back to the chorus
like any other song however after the chorus there is
a short interlude which goes like this.  Repeat this 4 times.

Interlude:

e------------------------------
b------------------------------
g------------------6--6-6-6-6-6
d-7-X-X-X-X-X-X-X--6--6-6-6-6-6
a-7-X-X-X-X-X-X-X--4--4-4-4-4-4
e-5-X-X-X-X-X-X-X--------------

Then go back to the chorus and then end suddenly.

Almost there ...

Sign in to get your own page with links to favourite songs and more. You are just one click away...

Login with Facebook Login with Google