Log in

One click and you are in

Login with Facebook Login with Google

Why sign up and log in

Guitar Tabs Explorer
Jake Owen bass tabs for Anywhere with you

Bass tabs

Tuning: 5 String Standard (B E A D G)


Intro:

  1 e + a 2 e + a 3 e + a 4 e + a   1 e + a 2 e + a 3 e + a 4 e + a
G|--------------------------------------------------|--------------------------------------------------|
D|--------------------------------------------------|--------------------------------------------------|
A|--------------------------------------------------|--------------------------------------------------|
E|--------------------------------6-----6--5--------|--------------------6-----------6-----6-----------|
B|--4--------4--------3-----------------------6-----|--6--------6-----8--------------------------------|
  1 e + a 2 e + a 3 e + a 4 e + a   1 e + a 2 e + a 3 e + a 4 e + a
G|--------------------------------------------------|--------------------------------------------------|
D|--------------------------------------------------|--------------------------------------------------|
A|--------------------------------------------------|--------------------------------------------------|
E|--------------------6-----------6-----6-----------|--------------------6-----------6-----6-----------|
B|--6--------6--6--8-----------6--------------------|--6--------6-----7--------------------------------|


  1 e + a 2 e + a 3 e + a 4 e + a
G|--------------------------------------------------|
D|--------------------------------------------------|
A|--------------------------------------------------|
E|--------------5-----8-----------------------------|
B|--3-----6--------9--------------------------------|


Verse 1:

  1 e + a 2 e + a 3 e + a 4 e + a   1 e + a 2 e + a 3 e + a 4 e + a
G|--------------------------------------------------|--------------------------------------------------|
D|--------------------------------------------------|--12----------------------------------------------|
A|--------------------------------------------------|--------------------------------------------------|
E|-/13----------------------------------------------|--------------------------------------------------|
B|--------------------------------------------------|--------------------------------------------------|

  1 e + a 2 e + a 3 e + a 4 e + a   1 e + a 2 e + a 3 e + a 4 e + a
G|--------------------------------------------------|--------------------------------------------------|
D|--10-------------------------------------------9--|--8-----------------------------------8-----------|
A|--------------------------------------------------|--------------------------------------------------|
E|--------------------------------------------------|--------------------------------------------------|
B|--------------------------------------------------|--------------------------------------------------|


  1 e + a 2 e + a 3 e + a 4 e + a   1 e + a 2 e + a 3 e + a 4 e + a
G|--------------------------------------------------|--------------------------------------------------|
D|-\3-----------------------------------------------|--------------------------------------------------|
A|--------------------------------------------------|--5-----------------------------------------------|
E|--------------------------------------------------|--------------------------------------------------|
B|--------------------------------------------------|--------------------------------------------------|


  1 e + a 2 e + a 3 e + a 4 e + a   1 e + a 2 e + a 3 e + a 4 e + a
G|--------------------------------------------------|--------------------------------------------------|
D|--------------------------------------------------|--------------------------------------8-----------|
A|--3-----------------------------------------------|--------------------------------------------------|
E|--------------------------------------------------|--6-----------------------------------------------|
B|--------------------------------------------------|--------------------------------------------------|


Chorus 1:

  1 e + a 2 e + a 3 e + a 4 e + a   1 e + a 2 e + a 3 e + a 4 e + a
G|--------------------------------------------------|--------------------------------------------------|
D|--------------------------------------------------|--------------------------------------------------|
A|--------------------------------------------------|--------------------------------------------8\----|
E|--------------------6-----------6-----6-----6--6--|--------------------6-----------6-----8--10-------|
B|--6-----6-----6--8-----------6--------------------|--6-----6-----6--------------6--------------------|


  1 e + a 2 e + a 3 e + a 4 e + a   1 e + a 2 e + a 3 e + a 4 e + a
G|--------------------------------------------------|--------------------------------------------------|
D|--------------------------------------------------|--------------------------------------------------|
A|--------------------------------------------------|--------------------------------------------------|
E|--------------------6-----------6-----6-----6--6--|--10----10----10----8-----------8-----------8\----|
B|--6-----6-----6--8-----------6--------------------|-----------------------------8--------8--10-------|


  1 e + a 2 e + a 3 e + a 4 e + a   1 e + a 2 e + a 3 e + a 4 e + a
G|--------------------------------------------------|--------------------------------------------------|
D|--------------------------------------------------|--------------------------------------------------|
A|--------------8-----------------------------------|--------------------------------------------------|
E|--------------------6--------6--6-----6-----------|--------------8-----6--------6--6-----6-----6-----|
B|--6-----6-----------------------------------------|--6-----6--------6--------------------------------|


  1 e + a 2 e + a 3 e + a 4 e + a   1 e + a 2 e + a 3 e + a 4 e + a
G|--------------------------------------------------|--------------------------------------------------|
D|--------------------------------------------------|--------------------------------------------------|
A|--------------8-----------------------------------|--------------------------------------------------|
E|--------------------6--------6--6-----6-----------|--------------5-----8-----------8-----8-----8-----|
B|--6--------6--------------------------------------|--3-----6--------8-----------8-----------------8--|


  1 e + a 2 e + a 3 e + a 4 e + a
G|--------------------------------------------------|
D|--------------------------------------------------|
A|--------------------------------------------------|
E|--6-----6-----6-----6-----8-----------------------|
B|-----------------------8--------------------------|


Pre-Verse 2:

  1 e + a 2 e + a 3 e + a 4 e + a   1 e + a 2 e + a 3 e + a 4 e + a
G|--------------------------------------------------|--------------------------------------------------|
D|--------------------------------------------------|--------------------------------------------------|
A|--------------------------------------------------|--------------8-----------------------------------|
E|--------------------6-----------6-----6-----6--6--|--------------------6-----------6-----6-----------|
B|--6-----------6--8--------------------------------|--6--------6-----------------8--------------------|


  1 e + a 2 e + a 3 e + a 4 e + a   1 e + a 2 e + a 3 e + a 4 e + a
G|--------------------------------------------------|--------------------------------------------------|
D|--------------------------------------------------|--------------------------------------------------|
A|--------------------------------------------------|--------------------------------------------------|
E|--------------------6-----------6-----6-----------|--------------5-----8-----------8-----8-----------|
B|--6--------6--6--8-----------8--------------------|--3-----6--------9--------------------------------|


Verse 2:

  1 e + a 2 e + a 3 e + a 4 e + a   1 e + a 2 e + a 3 e + a 4 e + a
G|--------------------------------------------------|--------------------------------------------------|
D|--------------------------------------------------|--------------------------------------------------|
A|--------------------------------------------------|--------------------------------------------------|
E|--------------------------------------------------|--10----------------10----------10----------------|
B|--6-----------------6-----------6-----------------|-----------------------------------------------10-|


  1 e + a 2 e + a 3 e + a 4 e + a   1 e + a 2 e + a 3 e + a 4 e + a
G|--------------------------------------------------|--------------------------------------------------|
D|--------------------------------------------------|--------------------------------------------------|
A|--------------------------------------------------|--------------------------------------------8-----|
E|--8-----------------8-----------8-----8--------x--|--6-----------------6-----------6-----8--10-------|
B|-----------------------------8--------------------|--------------------------------------------------|


  1 e + a 2 e + a 3 e + a 4 e + a   1 e + a 2 e + a 3 e + a 4 e + a
G|--------------------------------------------------|--------------------------------------------------|
D|--------------------------------------------------|--------------------------------------------------|
A|--------------------------------------------------|--------------------------------------5--------6--|
E|--------------------------------------------8--10-|--------------------------------------------------|
B|--6-----------------6-----------6-----------------|--3-----------------3-----------3-----------------|


  1 e + a 2 e + a 3 e + a 4 e + a   1 e + a 2 e + a 3 e + a 4 e + a
G|--------------------------------------------------|--------------------------------------------------|
D|--------------------------------------------------|--------------------------------------------------|
A|--3-----------------3-----------3-----------------|--------------------------10-13-13----13----------|
E|--------------------------------------------3-----|--6-----6-----6-----6-----------------------------|
B|--------------------------------------------------|--------------------------------------------------|


Chorus 2:

  1 e + a 2 e + a 3 e + a 4 e + a   1 e + a 2 e + a 3 e + a 4 e + a
G|--------------------------------------------------|--------------------------------------------------|
D|--------------------------------------------------|--------------------------------------------------|
A|--------------------------------------------------|--------------------------------------------8\----|
E|--------------------6-----------6-----6-----6--6--|--------------------6-----------6-----8--10-------|
B|--6-----6-----6--8-----------6--------------------|--6-----6-----6--------------6--------------------|


  1 e + a 2 e + a 3 e + a 4 e + a   1 e + a 2 e + a 3 e + a 4 e + a
G|--------------------------------------------------|--------------------------------------------------|
D|--------------------------------------------------|--------------------------------------------------|
A|--------------------------------------------------|--------------------------------------------------|
E|--------------------6-----------6-----6-----6--6--|--10----10----10----8-----------8-----------8\----|
B|--6-----6-----6--8-----------6--------------------|-----------------------------8--------8--10-------|


  1 e + a 2 e + a 3 e + a 4 e + a   1 e + a 2 e + a 3 e + a 4 e + a
G|--------------------------------------------------|--------------------------------------------------|
D|--------------------------------------------------|--------------------------------------------------|
A|--------------8-----------------------------------|--------------------------------------------------|
E|--------------------6--------6--6-----6-----6-----|--------------8-----6--------6--6-----6-----6-----|
B|--6-----6-----------------------------------------|--6-----6--------6--------------------------------|


  1 e + a 2 e + a 3 e + a 4 e + a   1 e + a 2 e + a 3 e + a 4 e + a
G|--------------------------------------------------|--------------------------------------------------|
D|--------------------------------------------------|--------------------------------------------------|
A|--------------8-----------------------------------|--------------------------------------------------|
E|--------------------6--------6--6-----6-----------|--------------5-----8--------7--8-----8-----8-----|
B|--6--------6--------------------------------------|--3-----6--------8-----------------------------8--|


  1 e + a 2 e + a 3 e + a 4 e + a
G|--------------------------------------------------|
D|--------------------------------------------------|
A|--------------------------------------------------|
E|--6-----------6-----------8-----8-----8-----8--6--|
B|--------6-----------7--9--------------------------|


Solo:

  1 e + a 2 e + a 3 e + a 4 e + a   1 e + a 2 e + a 3 e + a 4 e + a
G|--------------------------------------------------|--------------------------------------------------|
D|--------------------------------------------------|--------------------------------------------------|
A|--------------------------------------------------|-----------------------------9-/13----13----13\---|
E|--------------------6-----------6-----6-----6-----|--------------------6-----------------------------|
B|--6-----6-----6--8-----------6--------------------|--6-----6-----6-----------------------------------|


  1 e + a 2 e + a 3 e + a 4 e + a   1 e + a 2 e + a 3 e + a 4 e + a
G|--------------------------------------------------|--------------------------------------------------|
D|--------------------------------------------------|--------------------------------------------------|
A|--------------8-----------------------------------|--------------------------------------------------|
E|--------------------6-----------6-----6-----7-----|--8-----------8-----8--------8--8-----8-----------|
B|--6--------6-----------------6-----------------8--|--------8--10-------------------------------------|


Chorus 3:

  1 e + a 2 e + a 3 e + a 4 e + a   1 e + a 2 e + a 3 e + a 4 e + a
G|--------------------------------------------------|--------------------------------------------------|
D|--------------------------------------------------|--------------------------------------------------|
A|--------------------------------------------------|---------------------------------------------8\---|
E|--------------------6-----------6-----6-----6--6--|--------------------6-----------6-----8--10-------|
B|--6-----6-----6--8-----------6--------------------|--6-----6-----6--------------6--------------------|


  1 e + a 2 e + a 3 e + a 4 e + a   1 e + a 2 e + a 3 e + a 4 e + a
G|--------------------------------------------------|--------------------------------------------------|
D|--------------------------------------------------|--------------------------------------------------|
A|--------------8-----------------------------------|--------------------------------------------------|
E|--------------------6-----------6-----6-----------|--------------5-----8-----------8--8--8--8--8\----|
B|--6--------6--------------------------------------|--3-----6--------8--------------------------------|


  1 e + a 2 e + a 3 e + a 4 e + a   1 e + a 2 e + a 3 e + a 4 e + a
G|--------------------------------------------------|--------------------------------------------------|
D|--------------------------------------------------|--------------------------------------------------|
A|--------------8-----------------------------------|--------------------------------------------------|
E|--------------------6--------6--6-----6-----6-----|--------------8-----6--------6--6-----6-----6-----|
B|--6-----6-----------------------------------------|--6-----6--------6--------------------------------|


  1 e + a 2 e + a 3 e + a 4 e + a   1 e + a 2 e + a 3 e + a 4 e + a
G|--------------------------------------------------|--------------------------------------------------|
D|--------------------------------------------------|--------------------------------------------------|
A|--------------8-----------------------------------|--------------------------------------------------|
E|--------------------6--------6--6-----6-----------|--------------5-----8-----8-----8-----8-----------|
B|--6--------6--------------------------------------|--3-----6--------8-----------------------------8--|


  1 e + a 2 e + a 3 e + a 4 e + a   1 e + a 2 e + a 3 e + a 4 e + a
G|--------------------------------------------------|--------------------------------------------------|
D|--------------------------------------------------|--------------------------------------------------|
A|--------------------------------------------------|--------------------------------------------------|
E|--6-----6-----6-----6--6--8--8--------8-----------|--6-----6-----6-----------8--8--------8-----------|
B|--------------------------------8--------------8--|--------------------6--7--------8-----------7--6--|


  1 e + a 2 e + a 3 e + a 4 e + a
G|--------------------------------------------------|
D|--------------------------------------------------|
A|--------------------------------------------------|
E|--6-----------6-----------8-----------------------|
B|--------6-----------7--9--------------------------|


Outro:

  1 e + a 2 e + a 3 e + a 4 e + a   1 e + a 2 e + a 3 e + a 4 e + a
G|--------------------------------------------------|--------------------------------------------------|
D|--------------------------------------------------|--------------------------------------------------|
A|--------------------------------------------------|--------------8-----------------------------------|
E|--------------------6-----------6-----6-----6-----|--------------------6-----6--6--6-----6-----6-----|
B|--6--------6-----8--------------------------------|--6-----6-----------------------------------------|


  1 e + a 2 e + a 3 e + a 4 e + a   1 e + a 2 e + a 3 e + a 4 e + a
G|--------------------------------------------------|--------------------------------------------------|
D|--------------------------------------------------|--------------------------------------------------|
A|--------------------------------------------------|--------------------5-----------------------------|
E|--------------------6--------6--6-----6--------5--|--------------------------------5-----5--5--------|
B|--6-----6-----6--8--------------------------------|--4--------4--------------------------------6-----|


  1 e + a 2 e + a 3 e + a 4 e + a
G|--------------------------------------------------|
D|--------------------------------------------------|
A|--------------------------------------------------|
E|--------------------------------------------------|
B|--------------------------------------------------|



***********************************

| \ Slide down
| / Slide up

***********************************
ⓘ Bass guitar tab for 'Anywhere With You' by Jake Owen, a male country artist from Vero Beach Florida. Jake Owen was born in 1981.

Almost there ...

Sign in to get your own page with links to favourite songs and more. You are just one click away...

Login with Facebook Login with Google