Log in

One click and you are in

Login with Facebook Login with Google

Why sign up and log in

Guitar Tabs Explorer
Ovlov bass tabs for The wishing well

Bass tabs

Key: D

🎸 Verse 1: 0:07-0:11
G|---------------------------------------------------------------------------|
D|---------------------------------------------------------------------------|
A|---------------------------------------------------------------------------|
D|--0-0-0-0-0-0-0-0-9-9-9-9-9-9-9-9------------------------------------------|

🎸 Verse 2: 0:11-0:19
G|---------------------------------------------------------------------------|
D|---------------------------------------------------------------------------|
A|------------------9-9-9-9-9-9-9-9-----------------9-9-9-9-7-7-7-7----------|
D|--7-7-7-7-7-7-7-7-----------------7-7-7-7-7-7-7-7--------------------------|

🎸 Verse 1: 0:19-0:23
G|---------------------------------------------------------------------------|
D|---------------------------------------------------------------------------|
A|---------------------------------------------------------------------------|
D|--0-0-0-0-0-0-0-0-9-9-9-9-9-9-9-9------------------------------------------|

🎸 Verse 2: 0:23-0:31
G|---------------------------------------------------------------------------|
D|---------------------------------------------------------------------------|
A|------------------9-9-9-9-9-9-9-9-----------------9-9-9-9-7-7-7-7----------|
D|--7-7-7-7-7-7-7-7-----------------7-7-7-7-7-7-7-7--------------------------|

🎸 Verse 1: 0:31-0:35
G|---------------------------------------------------------------------------|
D|---------------------------------------------------------------------------|
A|---------------------------------------------------------------------------|
D|--0-0-0-0-0-0-0-0-9-9-9-9-9-9-9-9------------------------------------------|

🎸 Chorus: 0:35-0:54
G|---------------------------------------------------------------------------|
D|---------------------------------------------------------------------------|
A|----------------------------------------------4----------------------------|
D|--4-4-4-4-4-4-4-4-9-9-9-9-9-9-9-9-4-4-4-4-4-2---5-5-5-5-5-5-5-5------------|

  "walk by a distant home"
G|---------------------------------------------------------------------------|
D|---------------------------------------------------------------------------|
A|---------------------------------------------------------------------------|
D|--4-4-4-4-4-4-4-4-3-3-3-3-3-3-3-3-7-7-7-7-7-7-7-7-12-12-12-12-12-12-12-12--|

 "sounds like an ordinary day"
G|---------------------------------------------------------------------------|
D|---------------------------------------------------------------------------|
A|--------------------9--10-10-10-10-10-10-10-10-----------------------------|
D|--10-10-10-10-10-12----------------------------7---------------------------|

🎸 Verse 1: 1:02-1:06
G|---------------------------------------------------------------------------|
D|---------------------------------------------------------------------------|
A|---------------------------------------------------------------------------|
D|--0-0-0-0-0-0-0-0-9-9-9-9-9-9-9-9------------------------------------------|

🎸 Verse 2: 1:06-1:14
G|---------------------------------------------------------------------------|
D|---------------------------------------------------------------------------|
A|------------------9-9-9-9-9-9-9-9-----------------9-9-9-9-7-7-7-7----------|
D|--7-7-7-7-7-7-9-9-----------------7-7-7-7-7-7-9-9--------------------------|

🎸 Verse 1: 1:14-1:17
G|---------------------------------------------------------------------------|
D|---------------------------------------------------------------------------|
A|---------------------------------------------------------------------------|
D|--0-0-0-0-0-0-0-0-9-9-9-9-9-9-9-9------------------------------------------|

🎸 Verse 2: 1:17-1:25
G|---------------------------------------------------------------------------|
D|---------------------------------------------------------------------------|
A|------------------9-9-9-9-9-9-9-9-----------------9-9-9-9-7-7-7-7----------|
D|--7-7-7-7-7-7-7-7-----------------7-7-7-7-7-7-7-7--------------------------|

🎸 Verse 1: 1:25-1:29
G|---------------------------------------------------------------------------|
D|---------------------------------------------------------------------------|
A|---------------------------------------------------------------------------|
D|--0-0-0-0-0-0-0-0-9-9-9-9-9-9-9-9------------------------------------------|

🎸 Chorus: 1:29-1:49
G|---------------------------------------------------------------------------|
D|---------------------------------------------------------------------------|
A|----------------------------------------------4----------------------------|
D|--4-4-4-4-4-4-4-4-9-9-9-9-9-9-9-9-4-4-4-4-4-2---5-5-5-5-5-5-5-5------------|

G|---------------------------------------------------------------------------|
D|---------------------------------------------------------------------------|
A|---------------------------------------------------------------------------|
D|--4-4-4-4-4-4-4-4-3-3-3-3-3-3-3-3-7-7-7-7-7-7-7-7-12-12-12-12-12-12-12-12--|

G|---------------------------------------------------------------------------|
D|---------------------------------------------------------------------------|
A|--------------------9--10-10-10-10-10-10-10-10-----------------------------|
D|--10-10-10-10-10-12----------------------------7---------------------------|

Almost there ...

Sign in to get your own page with links to favourite songs and more. You are just one click away...

Login with Facebook Login with Google