Log in

One click and you are in

Login with Facebook Login with Google

Why sign up and log in

Guitar Tabs Explorer
Ovlov bass tabs for Moron pt 2

Bass tabs

Key: C#

🎸 Chorus 1:                       PM------|
E |---------------------------------------------------------------------------|
B |---------------------------------------------------------------------------|
F#|---------2-2-2-----------------------------2-2-2---------------4-4---------| x2
C#|-0-0-0-0-------5---5-5-5-5-5-5-5-5-0-0-0-0-------5--5-5-5-5-5--------------|

🎸 Verse 1:
E |---------------------------------------------------------------------------|
B |---------------------------------------------------------------------------|
F#|---------2-2-2--------------------------2-2-2---------4-4-4----------------| x4
C#|--4-4-4---------5--5-5---5-5-5---5-0-0---------5--5-5----------------------|

🎸 Pre-Chorus:
E |---------------------------------------------------------------------------|
B |---------------------------------------------------------------------------|
F#|---------------------------------------------------------------------------| x1
C#|--4-4-4-4-4-4-4-4-5-5-5-5-5-5-5-5------------------------------------------|

🎸 Chorus 2:
E |---------------------------------------------------------------------------|
B |---------------------------------------------------------------------------|
F#|----------------2--2--2---2-2-2-2------------------------------------------| x4
C#|--5--5--5-5-5-5------------------------------------------------------------|

🎸 Chorus 1:                       PM------|
E |---------------------------------------------------------------------------|
B |---------------------------------------------------------------------------|
F#|---------2-2-2-----------------------------2-2-2---------------4-4---------| x2
C#|-0-0-0-0-------5---5-5-5-5-5-5-5-5-0-0-0-0-------5--5-5-5-5-5--------------|


Verse 1 Ending:
E |---------------------------------------------------------------------------|
B |---------------------------------------------------------------------------|
F#|---------2-2-2--------------------------2-2-2---------4-4-4----------------|
C#|--4-4-4---------5--5-5---5-5-5---5-0-0---------5--5-5----------------------|

E |---------------------------------------------------------------------------|
B |---------------------------------------------------------------------------|
F#|---------2-2-2--------------------------2-2-2------------------------------|
C#|--4-4-4---------5--5-5---5-5-5---5-0-0---------5---------------------------|

☠☠☠☠☠☠☠☠☠☠☠☠☠☠☠☠☠☠☠☠☠☠☠☠☠☠☠☠☠☠☠☠☠☠☠☠
| PM Palm mute
☠☠☠☠☠☠☠☠☠☠☠☠☠☠☠☠☠☠☠☠☠☠☠☠☠☠☠☠☠☠☠☠☠☠☠☠

Almost there ...

Sign in to get your own page with links to favourite songs and more. You are just one click away...

Login with Facebook Login with Google