Log in

One click and you are in

Login with Facebook Login with Google

Why sign up and log in

Guitar Tabs Explorer
Overkill tabs for It lives

Guitar tabs with lyrics

IT LIVES
As recorded by Overkill
(From the 1997 Album FROM THE UNDERGROUND AND BELOW)

Transcribed by Emre "EmAr" Akpolat
Words and Music by Overkill

Gtr I (A chord diagramD MajorD A chord diagramG+G A chord diagramC majorC A chord diagramFF A chord diagramA augmentedA A chord diagramD MajorD) - `Untitled`
Gtr II (A chord diagramD MajorD A chord diagramG+G A chord diagramC majorC A chord diagramFF A chord diagramA augmentedA A chord diagramD MajorD) - `Untitled`

 Intro: Drums.
  Q=157
                 A chord diagramE5E5                            N.C.
 4/4
                 Gtr I
  Wx4            A chord diagramE MajorE A chord diagramE MajorE A chord diagramE MajorE A chord diagramE MajorE A chord diagramE MajorE A chord diagramE MajorE A chord diagramE MajorE A chord diagramE MajorE   A chord diagramE MajorE A chord diagramE MajorE A chord diagramE MajorE A chord diagramE MajorE A chord diagramE MajorE A chord diagramE MajorE  A chord diagramE MajorE  A chord diagramE MajorE
|------------||------------------|-------------------|
|------------||o-----------------|-------------------|
|------------||------------------|-------------------|
|------------||--9-9-9-9-9-9-9-9-|-9-9-9-9-9---------|
|------------||o-7-7-7-7-7-7-7-7-|-7-7-7-7-7------|
|------------||--0-0-0-0-0-0-0-0-|-0-0-0-0-0---------|


  A chord diagramE5E5                            N.C.
  A chord diagramE MajorE A chord diagramE MajorE A chord diagramE MajorE A chord diagramE MajorE A chord diagramE MajorE A chord diagramE MajorE A chord diagramE MajorE A chord diagramE MajorE   A chord diagramE MajorE A chord diagramE MajorE A chord diagramE MajorE A chord diagramE MajorE A chord diagramE MajorE A chord diagramE MajorE  A chord diagramE MajorE  A chord diagramE MajorE
|-----------------|---------------------||
|-----------------|--------------------o||
|-----------------|---------------------||
|-9-9-9-9-9-9-9-9-|-9-9-9-9-9-----------||
|-7-7-7-7-7-7-7-7-|-7-7-7-7-7----------o||
|-0-0-0-0-0-0-0-0-|-0-0-0-0-0--------||

    A chord diagramE5E5                            A chord diagramE5E5                   N.C.
    Gtrs I, II
    PM------|    PM------|        PM------|    PM------|
    S S S S S E. S S S S S E.  3x S S S S S E. S S S S Q
||-----------------------------||--------------------------|
||o---------------------------o||--------------------------|
||-----------------------------||--------------------------|
||-----------------------------||--------------------------|
||o-2-2-2-2-2----2-2-2-2-2----o||-2-2-2-2-2----2-2-2-2-----|
||--0-0-0-0-0----0-0-0-0-0-----||-0-0-0-0-0----0-0-0-0-3--|


    A chord diagramE5E5  A chord diagramF5F5 A chord diagramE5E5  A chord diagramF5F5         A chord diagramE5E5    A chord diagramF5F5 A chord diagramE5E5    A chord diagramF5F5
    A chord diagramE MajorE A chord diagramE MajorE Q  A chord diagramE MajorE A chord diagramE MajorE Q          A chord diagramE MajorE A chord diagramE MajorE S E. A chord diagramE MajorE A chord diagramE MajorE S E.
||-----------------||-||---------------------||
||o---------------o||-||o-------------------o||
||-----------------||-||---------------------||
||-----------------||-||---------------------||
||o-2-2-3--2-2-3--o||-||o-2-2-2-3--2-2-2-3--o||
||--0-0-1--0-0-1---||-||--0-0-0-1--0-0-0-1---||


                                                      1.
    A chord diagramE5E5            N.C.                  A chord diagramE5E5            E5F5
    Gtr I
    Q  Q  Q  Q    W                     Q  Q  Q  Q    W
||--------------|---------------------|-------------|-----------------------||
||o-------------|---------------------|-------------|----------------------o||
||--------------|---------------------|-------------|-----------------------||
||--------------|---------------------|-------------|-----------------------||
||o-2--2--2--2--|---------------------|-2--2--2--2--|----------------------o||
||--0--0--0--0--|---------------------|-0--0--0--0--|-----------------------||
|
|   Gtr II
|                                                         PM        PM
|   W             S S A chord diagramE MajorE A chord diagramE MajorE A chord diagramE MajorE S S A chord diagramE MajorE A chord diagramE MajorE A chord diagramE MajorE   W             S A chord diagramE MajorE A chord diagramE MajorE S A chord diagramE MajorE A chord diagramE MajorE S A chord diagramE MajorE S A chord diagramE MajorE
||--------------|---------------------|-------------|-----------------------||
||o-------------|---------------------|-------------|----------------------o||
||--------------|---------------------|-------------|-----------------------||
||--------------|-0h2p0-----0h2p0-----|-------------|-----------------------||
||o-------------|-------2-1-------2-1-|-------------|-2h3-3-3-3-3---3-3-3--o||
||--------------|---------------------|-------------|-0h1-1-1-1-1---1-1-1---||


  2.
  E5F5          E5F5            E5F5          E5F5
  Gtrs I, II
      PM------|     PM------|       PM------|     PM----|
  S A chord diagramE MajorE S S S S S S A chord diagramE MajorE S S S S S   S A chord diagramE MajorE S S S S S S A chord diagramE MajorE S S S A chord diagramE MajorE   W
|-----------------------------|---------------------------|------|
|-----------------------------|---------------------------|------|
|-----------------------------|---------------------------|------|
|-----------------------------|---------------------------|------|
|-2h3-3---3-3-3-2h3-3---3-3-3-|-2h3-3---3-3-3-2h3-3---3-3-|------|
|-0h1-1---1-1-1-0h1-1---1-1-1-|-0h1-1---1-1-1-0h1-1---1-1-|------|


   vocal enters the 3rd time
    A chord diagramE MajorE             A chord diagramFF A chord diagramE MajorE A chord diagramFF   A chord diagramE MajorE             A chord diagramFF A chord diagramE MajorE A chord diagramFF
    PM--------|           PM--------|
    A chord diagramE MajorE S S S S A chord diagramE MajorE A chord diagramE MajorE A chord diagramE MajorE A chord diagramE MajorE A chord diagramE MajorE   A chord diagramE MajorE S S S S A chord diagramE MajorE A chord diagramE MajorE A chord diagramE MajorE A chord diagramE MajorE A chord diagramE MajorE
||----------------------|---------------------|
||o---------------------|---------------------|
||----------------------|---------------------|
||----------------------|---------------------|
||o---------------------|---------------------|
||--0-0-0---0-0-0-1-0-1-|-0-0-0---0-0-0-1-0-1-|


  A chord diagramE MajorE             A chord diagramFF A chord diagramE MajorE A chord diagramFF   A chord diagramE MajorE             A chord diagramFF A chord diagramE MajorE A chord diagramBb majorBb
  PM--------|           PM--------|
  A chord diagramE MajorE S S S S A chord diagramE MajorE A chord diagramE MajorE A chord diagramE MajorE A chord diagramE MajorE A chord diagramE MajorE   A chord diagramE MajorE S S S S A chord diagramE MajorE A chord diagramE MajorE A chord diagramE MajorE A chord diagramE MajorE A chord diagramE MajorE  4x
|---------------------|----------------------||
|---------------------|---------------------o||
|---------------------|----------------------||
|---------------------|----------------------||
|---------------------|-------------------1-o||
|-0-0-0---0-0-0-1-0-1-|-0-0-0---0-0-0-1-0----||


    A chord diagramE MajorE       A chord diagramFF A chord diagramE MajorE     A chord diagramG5G5 G#5A5  A chord diagramE MajorE       A chord diagramFF A chord diagramE MajorE     A chord diagramG5G5 G#5A5
    PM------------|           PM------------|
    S S S S S S S S E. E. A chord diagramE MajorE   S S S S S S S S E. E. A chord diagramE MajorE
||--------------------------|--------------------------||
||o-------------------------|-------------------------o||
||--------------------------|--------------------------||
||--------------------------|--------------------------||
||o-----------------5--6--7-|-----------------5--6--7-o||
||--0-0-0-0-1-0-0-0-3--4--5-|-0-0-0-0-1-0-0-0-3--4--5--||


  A chord diagramFF A chord diagramE MajorE         A chord diagramFF A chord diagramE MajorE A chord diagramFF   A chord diagramFF A chord diagramE MajorE         A chord diagramFF A chord diagramE MajorE A chord diagramFF
  S A chord diagramE MajorE A chord diagramE MajorE S A chord diagramE MajorE A chord diagramE MajorE A chord diagramE MajorE A chord diagramE MajorE A chord diagramE MajorE   S A chord diagramE MajorE A chord diagramE MajorE S A chord diagramE MajorE A chord diagramE MajorE A chord diagramE MajorE A chord diagramE MajorE A chord diagramE MajorE
|-------------------|-------------------|
|-------------------|-------------------|
|-------------------|-------------------|
|-------------------|-------------------|
|-------------------|-------------------|
|-1-0-0-0-0-0-1-0-1-|-1-0-0-0-0-0-1-0-1-|


    A chord diagramE MajorE             A chord diagramFF A chord diagramE MajorE A chord diagramFF   A chord diagramE MajorE             A chord diagramFF A chord diagramE MajorE A chord diagramFF
    PM--------|           PM--------|
    A chord diagramE MajorE S S S S A chord diagramE MajorE A chord diagramE MajorE A chord diagramE MajorE A chord diagramE MajorE A chord diagramE MajorE   A chord diagramE MajorE S S S S A chord diagramE MajorE A chord diagramE MajorE A chord diagramE MajorE A chord diagramE MajorE A chord diagramE MajorE
||----------------------|---------------------|
||o---------------------|---------------------|
||----------------------|---------------------|
||----------------------|---------------------|
||o---------------------|---------------------|
||--0-0-0---0-0-0-1-0-1-|-0-0-0---0-0-0-1-0-1-|


  A chord diagramE MajorE             A chord diagramFF A chord diagramE MajorE A chord diagramFF   A chord diagramE MajorE             A chord diagramFF A chord diagramE MajorE A chord diagramBb majorBb
  PM--------|           PM--------|
  A chord diagramE MajorE S S S S A chord diagramE MajorE A chord diagramE MajorE A chord diagramE MajorE A chord diagramE MajorE A chord diagramE MajorE   A chord diagramE MajorE S S S S A chord diagramE MajorE A chord diagramE MajorE A chord diagramE MajorE A chord diagramE MajorE A chord diagramE MajorE
|---------------------|----------------------||
|---------------------|---------------------o||
|---------------------|----------------------||
|---------------------|----------------------||
|---------------------|-------------------1-o||
|-0-0-0---0-0-0-1-0-1-|-0-0-0---0-0-0-1-0----||


    A chord diagramE MajorE       A chord diagramFF A chord diagramE MajorE     A chord diagramG5G5 G#5A5    A chord diagramE MajorE A chord diagramA5A5 Bb5B5E A chord diagramB5B5 A chord diagramC5C5    A chord diagramC#5C#5
    PM------------|             PM        PM
    S S S S S S S S E. E. A chord diagramE MajorE  4x S E. E. A chord diagramE MajorE S E.  E.    A chord diagramE MajorE H..
||---------------------------||--------------------|-----------|
||o-------------------------o||--------------------|-----------|
||---------------------------||--------------------|-----------|
||---------------------------||--------------------|-----------|
||o-----------------5--6--7-o||---7--8--9---9--10--|-11--------|
||--0-0-0-0-1-0-0-0-3--4--5--||-0-5--6--7-0-7---8--|--9--------|


   Chorus
    E5F5E5                      E5F5E5        E5F5E5
          PM--------------|           PM----|       PM----|
    S S A chord diagramE MajorE S S S S A chord diagramE MajorE A chord diagramE MajorE S A chord diagramE MajorE S  3x S S A chord diagramE MajorE S S S S S S A chord diagramE MajorE S S S S
||---------------------------||------------------------------|
||o-------------------------o||------------------------------|
||---------------------------||------------------------------|
||---------------------------||------------------------------|
||o-2h3p2-------------------o||-2h3p2---------2h3p2----------|
||--0h1p0-0-0-0-0-0-0-0-0-0--||-0h1p0-0-0-0-0-0h1p0-0-0-0-0--|


    E5F5E5
          PM--------------|
    S S A chord diagramE MajorE S S S S A chord diagramE MajorE A chord diagramE MajorE S A chord diagramE MajorE S  3x
||---------------------------||
||o-------------------------o||
||---------------------------||
||---------------------------||
||o-2h3p2-------------------o||
||--0h1p0-0-0-0-0-0-0-0-0-0--||


  E5F5E5        E5F5E5          E5F5E5
        PM----|       PM----|         PM----------------|
  S S A chord diagramE MajorE S S S S S S A chord diagramE MajorE S S S S   S S A chord diagramE MajorE S S S S A chord diagramE MajorE S S S A chord diagramE MajorE S
|-----------------------------|-----------------------------|
|-----------------------------|-----------------------------|
|-----------------------------|-----------------------------|
|-----------------------------|-----------------------------|
|-2h3p2---------2h3p2---------|-2h3p2-----------------------|
|-0h1p0-0-0-0-0-0h1p0-0-0-0-0-|-0h1p0-0-0-0-0-0-0-0-0-0-0---|


 Breakdown
  A chord diagramE5E5    FFE   N.C.     A chord diagramE MajorE  A chord diagramFF A chord diagramE MajorE A chord diagramFF N.C.         A chord diagramE MajorE  A chord diagramFF A chord diagramE MajorE A chord diagramFF N.C.    A chord diagramE MajorE  A chord diagramFF A chord diagramE MajorE A chord diagramFF N.C.
  Gtr I
  A chord diagramE MajorE H..                W              3x     H      A chord diagramE MajorE  Q.     H      A chord diagramE MajorE  Q.
|------------------||-----------------||-||-----------15----|----------------|
|------------------||o---------------o||-||o----------------|----------15----|
|------------------||-----------------||-||-----------------|----------------|
|-2----------------||-----------------||-||-----------------|----------------|
|-2----------------||o---------------o||-||o----------------|----------------|
|-0----------------||-----------------||-||-----------------|----------------|
|
| Gtr II
|       PM--|             PM--|                 PM--|            PM--|
| Q     A chord diagramE MajorE A chord diagramE MajorE A chord diagramE MajorE Q.       Q  A chord diagramE MajorE A chord diagramE MajorE A chord diagramE MajorE Q.    3x     Q  A chord diagramE MajorE A chord diagramE MajorE A chord diagramE MajorE  Q.     Q  A chord diagramE MajorE A chord diagramE MajorE A chord diagramE MajorE  Q.
|------------------||-----------------||-||-----------------|----------------|
|------------------||o---------------o||-||o----------------|----------------|
|-------------0----||-----------0-----||-||------------0----|-----------0----|
|------------------||-----------------||-||-----------------|----------------|
|------------------||o---------------o||-||o----------------|----------------|
|-0-----1-0-1------||--0--1-0-1-------||-||--0--1-0-1-------|-0--1-0-1-------|


                                      $
  A chord diagramE MajorE  A chord diagramFF A chord diagramE MajorE A chord diagramFF N.C.    A chord diagramE MajorE  A chord diagramFF A chord diagramE MajorE A chord diagramFF N.C.          A chord diagramE MajorE  A chord diagramFF A chord diagramE MajorE A chord diagramFF N.C.
  H      A chord diagramE MajorE  Q.     H      A chord diagramE MajorE  Q.           H      A chord diagramE MajorE  Q.
|----------15----|----------19-----||-||-----------15----|
|----------------|----------------o||-||o----------------|
|----------------|-----------------||-||-----------------|
|----------------|-----------------||-||-----------------|
|----------------|----------------o||-||o----------------|
|----------------|-----------------||-||-----------------|
|
|    PM--|            PM--|                  PM--|
| Q  A chord diagramE MajorE A chord diagramE MajorE A chord diagramE MajorE  Q.     Q  A chord diagramE MajorE A chord diagramE MajorE A chord diagramE MajorE  Q.           Q  A chord diagramE MajorE A chord diagramE MajorE A chord diagramE MajorE  Q.
|----------------|-----------------||-||-----------------|
|----------------|----------------o||-||o----------------|
|-----------0----|-----------0-----||-||------------0----|
|----------------|-----------------||-||-----------------|
|----------------|----------------o||-||o----------------|
|-0--1-0-1-------|-0--1-0-1--------||-||--0--1-0-1-------|


  A chord diagramE MajorE  A chord diagramFF A chord diagramE MajorE A chord diagramFF N.C.    A chord diagramE MajorE  A chord diagramFF A chord diagramE MajorE A chord diagramFF N.C.    A chord diagramE MajorE  A chord diagramFF A chord diagramE MajorE A chord diagramFF N.C.
  H      A chord diagramE MajorE  Q.     H      A chord diagramE MajorE  Q.     H      A chord diagramE MajorE  Q.
|----------------|----------15----|----------19-----||
|----------15----|----------------|----------------o||
|----------------|----------------|-----------------||
|----------------|----------------|-----------------||
|----------------|----------------|----------------o||
|----------------|----------------|-----------------||
|
|    PM--|            PM--|            PM--|
| Q  A chord diagramE MajorE A chord diagramE MajorE A chord diagramE MajorE  Q.     Q  A chord diagramE MajorE A chord diagramE MajorE A chord diagramE MajorE  Q.     Q  A chord diagramE MajorE A chord diagramE MajorE A chord diagramE MajorE  Q.
|----------------|----------------|-----------------||
|----------------|----------------|----------------o||
|-----------0----|-----------0----|-----------0-----||
|----------------|----------------|-----------------||
|----------------|----------------|----------------o||
|-0--1-0-1-------|-0--1-0-1-------|-0--1-0-1--------||


  A chord diagramE MajorE            A chord diagramFF                A chord diagramE MajorE            A chord diagramFF         A chord diagramBB  A chord diagramBb majorBb A chord diagramA augmentedA
  Q  Q  A chord diagramE MajorE  A chord diagramE MajorE A chord diagramE MajorE A chord diagramE MajorE   +W           Q  Q  A chord diagramE MajorE  A chord diagramE MajorE A chord diagramE MajorE A chord diagramE MajorE   +Q.   Q  Q  A chord diagramE MajorE
|----------------|------------|----------------|---------------|
|----------------|------------|----------------|---------------|
|----------------|------------|----------------|---------------|
|----------------|------------|----------------|---------------|
|----7--7h10-7-8-|-(8)--------|----7--7h10-7-8-|-(8)-----------|
|-0--------------|------------|-0--------------|-------7--6--5-|


                                                                        D.S.
  A chord diagramE MajorE            A chord diagramFF        N.C.                   A chord diagramE MajorE            A chord diagramFF         A chord diagramB5B5 Bb5A5
                         /1    /1    /1
  Q  Q  A chord diagramE MajorE  A chord diagramE MajorE A chord diagramE MajorE A chord diagramE MajorE   +Q    A chord diagramE MajorE   A chord diagramE MajorE  A chord diagramE MajorE   A chord diagramE MajorE  A chord diagramE MajorE   A chord diagramE MajorE   Q  Q  A chord diagramE MajorE  A chord diagramE MajorE A chord diagramE MajorE A chord diagramE MajorE   +Q.   Q  Q  A chord diagramE MajorE
|----------------|---------------------------|----------------|---------------|
|----------------|---------------------------|----------------|---------------|
|----------------|---------------------------|----------------|---------------|
|----------------|---------------------------|----------------|---------------|
|----7--7h10-7-8-|-(8)--10---8-10---8-10---8-|----7--7h10-7-8-|-(8)---9--8--7-|
|-0--------------|---------------------------|-0--------------|-------7--6--5-|


    A chord diagramE MajorE  A chord diagramFF A chord diagramE MajorE A chord diagramFF N.C.    A chord diagramE MajorE  A chord diagramFF A chord diagramE MajorE A chord diagramFF N.C.    A chord diagramE MajorE  A chord diagramFF A chord diagramE MajorE A chord diagramFF N.C.    A chord diagramE MajorE  A chord diagramFF A chord diagramE MajorE A chord diagramFF N.C.
    H      A chord diagramE MajorE  Q.     H      A chord diagramE MajorE  Q.     H      A chord diagramE MajorE  Q.     H      A chord diagramE MajorE  Q.
||-----------15----|----------------|----------15----|----------19------||
||o----------------|----------15----|----------------|-----------------o||
||-----------------|----------------|----------------|------------------||
||-----------------|----------------|----------------|------------------||
||o----------------|----------------|----------------|-----------------o||
||-----------------|----------------|----------------|------------------||
|
|   Gtr II
|      PM--|            PM--|            PM--|            PM--|
|   Q  A chord diagramE MajorE A chord diagramE MajorE A chord diagramE MajorE  Q.     Q  A chord diagramE MajorE A chord diagramE MajorE A chord diagramE MajorE  Q.     Q  A chord diagramE MajorE A chord diagramE MajorE A chord diagramE MajorE  Q.     Q  A chord diagramE MajorE A chord diagramE MajorE A chord diagramE MajorE  Q.
||-----------------|----------------|----------------|------------------||
||o----------------|----------------|----------------|-----------------o||
||------------0----|-----------0----|-----------0----|-----------0------||
||-----------------|----------------|----------------|------------------||
||o----------------|----------------|----------------|-----------------o||
||--0--1-0-1-------|-0--1-0-1-------|-0--1-0-1-------|-0--1-0-1---------||


 Breakdown 2
  A chord diagramE5E5
  W          +W           +W           +W
|----------|------------|------------|--------|
|----------|------------|------------|--------|
|----------|------------|------------|--------|
|-2--------|-(2)--------|-(2)--------|-(2)----|
|-2--------|-(2)--------|-(2)--------|-(2)----|
|-0--------|-(0)--------|-(0)--------|-(0)----|


    A chord diagramE5E5           A chord diagramE5E5               A chord diagramE5E5           A chord diagramE5E5      N.C.
    PM------|    PM------|        PM------|    PM------|
    S S S S S E. S S S S S E.  3x S S S S S E. S S S S Q
||-----------------------------||--------------------------|
||o---------------------------o||--------------------------|
||-----------------------------||--------------------------|
||-----------------------------||--------------------------|
||o-2-2-2-2-2----2-2-2-2-2----o||-2-2-2-2-2----2-2-2-2-----|
||--0-0-0-0-0----0-0-0-0-0-----||-0-0-0-0-0----0-0-0-0-3--|


    A chord diagramE5E5  A chord diagramF5F5 A chord diagramE5E5  A chord diagramF5F5         A chord diagramE5E5    A chord diagramF5F5 A chord diagramE5E5    A chord diagramF5F5
    A chord diagramE MajorE A chord diagramE MajorE Q  A chord diagramE MajorE A chord diagramE MajorE Q          A chord diagramE MajorE A chord diagramE MajorE S E. A chord diagramE MajorE A chord diagramE MajorE S E.
||-----------------||-||---------------------||
||o---------------o||-||o-------------------o||
||-----------------||-||---------------------||
||-----------------||-||---------------------||
||o-2-2-3--2-2-3--o||-||o-2-2-2-3--2-2-2-3--o||
||--0-0-1--0-0-1---||-||--0-0-0-1--0-0-0-1---||


  A chord diagramE5E5            N.C.                  A chord diagramE5E5            N.C.
  Q  Q  Q  Q    W                     Q  Q  Q  Q    W
|-------------|---------------------|-------------|------|
|-------------|---------------------|-------------|------|
|-------------|---------------------|-------------|------|
|-------------|---------------------|-------------|------|
|-2--2--2--2--|---------------------|-2--2--2--2--|------|
|-0--0--0--0--|---------------------|-0--0--0--0--|------|
|
| Gtr II
| W             S S A chord diagramE MajorE A chord diagramE MajorE A chord diagramE MajorE S S A chord diagramE MajorE A chord diagramE MajorE A chord diagramE MajorE   W             W
|-------------|---------------------|-------------|------|
|-------------|---------------------|-------------|------|
|-------------|---------------------|-------------|------|
|-------------|-0h2p0-----0h2p0-----|-------------|------|
|-------------|-------2-1-------2-1-|-------------|------|
|-------------|---------------------|-------------|------|


    A chord diagramE MajorE             A chord diagramFF A chord diagramE MajorE A chord diagramFF   A chord diagramE MajorE             A chord diagramFF A chord diagramE MajorE A chord diagramFF
    PM--------|           PM--------|
    A chord diagramE MajorE S S S S A chord diagramE MajorE A chord diagramE MajorE A chord diagramE MajorE A chord diagramE MajorE A chord diagramE MajorE   A chord diagramE MajorE S S S S A chord diagramE MajorE A chord diagramE MajorE A chord diagramE MajorE A chord diagramE MajorE A chord diagramE MajorE
||----------------------|---------------------|
||o---------------------|---------------------|
||----------------------|---------------------|
||----------------------|---------------------|
||o---------------------|---------------------|
||--0-0-0---0-0-0-1-0-1-|-0-0-0---0-0-0-1-0-1-|


  A chord diagramE MajorE             A chord diagramFF A chord diagramE MajorE A chord diagramFF   A chord diagramE MajorE             A chord diagramFF A chord diagramE MajorE A chord diagramBb majorBb
  PM--------|           PM--------|
  A chord diagramE MajorE S S S S A chord diagramE MajorE A chord diagramE MajorE A chord diagramE MajorE A chord diagramE MajorE A chord diagramE MajorE   A chord diagramE MajorE S S S S A chord diagramE MajorE A chord diagramE MajorE A chord diagramE MajorE A chord diagramE MajorE A chord diagramE MajorE
|---------------------|----------------------||
|---------------------|---------------------o||
|---------------------|----------------------||
|---------------------|----------------------||
|---------------------|-------------------1-o||
|-0-0-0---0-0-0-1-0-1-|-0-0-0---0-0-0-1-0----||


    A chord diagramE MajorE       A chord diagramFF       A chord diagramG5G5 G#5A5    A chord diagramE MajorE A chord diagramA5A5 Bb5B5E A chord diagramB5B5 A chord diagramC5C5    A chord diagramC#5C#5
    PM------------|             PM        PM
    S S S S S S S S E. E. A chord diagramE MajorE  4x S E. E. A chord diagramE MajorE S E.  E.    A chord diagramE MajorE H..
||---------------------------||--------------------|-----------|
||o-------------------------o||--------------------|-----------|
||---------------------------||--------------------|-----------|
||---------------------------||--------------------|-----------|
||o-----------------5--6--7-o||---7--8--9---9--10--|-11--------|
||--0-0-0-0-1-0-0-0-3--4--5--||-0-5--6--7-0-7---8--|--9--------|


   Outro
    E5F5E5                    E5F5E5
          PM--------------|         PM--------------|
    S S A chord diagramE MajorE S S S S A chord diagramE MajorE A chord diagramE MajorE S A chord diagramE MajorE S   S S A chord diagramE MajorE S S S S A chord diagramE MajorE A chord diagramE MajorE S A chord diagramE MajorE S
||--------------------------|-------------------------|
||o-------------------------|-------------------------|
||--------------------------|-------------------------|
||--------------------------|-------------------------|
||o-2h3p2-------------------|-2h3p2-------------------|
||--0h1p0-0-0-0-0-0-0-0-0-0-|-0h1p0-0-0-0-0-0-0-0-0-0-|


  E5F5E5                    E5F5E5        E5F5E5
        PM--------------|         PM----|       PM----|
  S S A chord diagramE MajorE S S S S A chord diagramE MajorE A chord diagramE MajorE S A chord diagramE MajorE S   S S A chord diagramE MajorE S S S S S S A chord diagramE MajorE S S S S  4x
|-------------------------|------------------------------||
|-------------------------|-----------------------------o||
|-------------------------|------------------------------||
|-------------------------|------------------------------||
|-2h3p2-------------------|-2h3p2---------2h3p2---------o||
|-0h1p0-0-0-0-0-0-0-0-0-0-|-0h1p0-0-0-0-0-0h1p0-0-0-0-0--||


  E5F5E5                    A chord diagramE5E5
        PM--------------|
  S S A chord diagramE MajorE S S S S A chord diagramE MajorE A chord diagramE MajorE S A chord diagramE MajorE S   A chord diagramE MajorE H..
|-------------------------|----------*|
|-------------------------|----------*|
|-------------------------|----------*|
|-------------------------|-2--------*|
|-2h3p2-------------------|-2--------*|
|-0h1p0-0-0-0-0-0-0-0-0-0-|-0--------*|


Duration 🏷Legend
---------------
W - whole; H - half; Q - quarter; A chord diagramE MajorE - 8th; S - 16th; T - 32nd; X - 64th; a - acciaccatura
+ - note tied to previous; . - note dotted; .. - note double dotted
Uncapitalized letters represent notes that are staccato (1/2 duration)
Irregular groupings are notated above the duration line
Duration letters will always appear directly above the note/fret number it represents the
duration for.  Duration letters with no fret number below them represent rests.  Multi-
bar rests are notated in the form Wxn, where n is the number of bars to rest for.  Low
melody durations appear below the staff

Tablature 🏷Legend
----------------
 h   - hammer-on
 p   - pull-off
 b   - bend
 pb  - pre-bend
 r   - bend release (if no number after the r, then release immediately)
 /  - slide into or out of (from/to "nowhere")
 s   - legato slide
 S   - shift slide
 - natural harmonic
[n]  - artificial harmonic
n(n) - tapped harmonic
 ~   - vibrato
 tr  - trill
 T   - tap
 TP  - trem. picking
 PM  - palm muting
n/  - tremolo bar dip; n = amount to dip
 n  - tremolo bar down
 n/  - tremolo bar up
/n  - tremolo bar inverted dip
 =   - hold bend; also acts as connecting device for hammers/pulls
  - volume swell (louder/softer)
 x   - on rhythm slash represents muted slash
 o   - on rhythm slash represents single note slash

Misc 🏷Legend
-----------
 |  - bar
||  - double bar
||o - repeat start
o|| - repeat end
*|  - double bar (ending)
 :  - bar (freetime)
 $  - Segno
 &  - Coda
Tempo markers -  = BPM(8/16=s8/s16), where s8 = swing 8ths, s16 = swing 16ths.
ⓘ Guitar tab for 'It Lives' by Overkill, a thrash metal band formed in 1980 from New Jersey, USA. Overkill is known for their angry metal music.

Almost there ...

Sign in to get your own page with links to favourite songs and more. You are just one click away...

Login with Facebook Login with Google