Log in

One click and you are in

Login with Facebook Login with Google

Why sign up and log in

Guitar Tabs Explorer
The Outlaws bass tabs for Green grass and high tides

Green Grass And High Tides bass tab by The Outlaws

The Outlaws bass tabs for Green grass and high tides

Bass tabs

Tabbed by: JScott

G|--------------------------------------------------------------------|
D|--------------------------------------------------------------------|
A|0--------0-0--------0-0-0----0h23------345--0-0-0-0-----------------|
E|---------------------------0------0h23------------------------------|
Intro Cont. (x4) (Last Solo As Well, there is some variation during end of solo,
just listen to the song)
G|--------------------------------------------------------------------|
D|--------------------------------------------------------------------|
A|---33----55-0000000-2h3---------------------------------------------|
E|00----33------------------------------------------------------------|


Verse/1st Solo				Play At End Of Verse
G|--------------------------------------------------------------------|
D|------------------5-5h7-7h5-----------------------------------------|
A|-----02h33333--7--------------------33-----------------------------|
E|0000------------------------------------00--------------------------|


Chorus
G|--------------------------------------------------------------------|
D|--------------------------------------------------------------------|
A|332----3333------3333--320------------------------------------------|
E|------------3333----------------------------------------------------|

You really got to listen to the CD to get the correct order.
| / slide up
|  slide down
| h hammer-on
| p pull-off
| ~ vibrato
| + harmonic
| x Mute note

Almost there ...

Sign in to get your own page with links to favourite songs and more. You are just one click away...

Login with Facebook Login with Google