Log in

One click and you are in

Login with Facebook Login with Google

Why sign up and log in

Guitar Tabs Explorer
Outkast bass tabs for My favorite things

Bass tabs

My Favorite Things


Intro: Upright Bass (4x)		<---Most important lick
|-----------------|-----------------|
|---9-7-----7-5---|---9-7-----7-5---|
|-7-----7-5-----5-|-7-----7-5-----5-|
|-----------------|-----------------|
Chorus: Upright Bass
|-----------------|-----------------|-------------|--------------|
|---9-7-----7-5---|---9-7-----5---5-|----2~-5~-4~-|5----------6~-|
|/7-----7-5-----5-|-7-----7-5---4---|-3~----------|--0-1-2-3~----|
|-----------------|-----------------|-------------|--------------|

|------------|------------*--------------|-----------|
|7~-------4~-|5~-------5~-|5--------2~-5-|------3~~~~|
|---4~-5~----|---2~-3~----|--0~-2-4------|2~~~~~-----|
|------------|------------|--------------|-----------|
			 *"These are a few of my favorite things"


Solos: Upright Bass
|-----------------|-----------------|
|---9-7-----7-5---|---9-7-----7-5---| 4x
|-7-----7-5-----5-|-7-----7-5-----5-|
|-----------------|-----------------|

|-----------------|-----------------|
|---9-7-----7-5---|---9-7-----7-5---|
|-7-----7-5-----5-|-7-----7-5-----5-|
|-----------------|-----------------|

|-----------------|-----------------|
|---9-7-----7-5---|---9-7-----7-5---|
|-7-----7-5-----5-|-7-----7-5-----5-|
|-----------------|-----------------|

|-----------------|-----------------|
|---9-7-----7-5---|---9-7-----7-5---|
|-7-----7-5-----5-|-7-----7-5-----5-|
|-----------------|-----------------|

|-----------------|-----2-1-4-4-----|
|---9-7-----7-5-0-|-2-2---------0-1-|
|-7-----7-5-------|-----------------|
|-----------------|-----------------|


Chorus 2:
|-----------------|-----------------|-------------|-----------4~-|
|---9-7-----7-5---|---9-7-----5---5-|----2~-3~-4~-|5-------------|
|/7-----7-5-----5-|-7-----7-5---4---|-3~----------|--0-1-2-3~----|
|-----------------|-----------------|-------------|--------------|

|2------------2-|-------------|--------------|------------10-|
|-----2---------|5~-----------|5--------2~-5-|------9---9----|
|--3~---5~--5---|--2~-5-3~-3~-|--0~-2-4------|---8----8------|
|---------------|-------------|*-------------|/7~------------|
			   	"These are a..."

Repeat Main lick 	4x


Outro:
|9~~~~-7~~~~-|9~~~~-7~~~~-|------------|------------|
|------------|------------|------------|------------|
|------------|------------|7~~~~-5~~~~-|7~~~~-5~~~~-|
|------------|------------|------------|------------|

|-----------------|-----------------|
|---9-7-----7-5---|---9-7-----7-5---|
|-7-----7-5-----5-|-7-----7-5-----5-|
|-----------------|-----------------|

|----------------|----------------|
|--9~~-----7~~---|--9~~-----7~~---| 2x
|7~----7-5~----5-|7~----7-5~----5-|
|----------------|----------------|

|---------------|-------------|
|---------------|-------------|
|7~~~~~~~~~~~~--|-------------|
|---------------|0////3~~~\\\-|

Almost there ...

Sign in to get your own page with links to favourite songs and more. You are just one click away...

Login with Facebook Login with Google