Log in

One click and you are in

Login with Facebook Login with Google

Why sign up and log in

Guitar Tabs Explorer
Ours tabs for Here is the light

Guitar tabs with lyrics

Song : "Here is the Light"
Album: Distorted Lullibies
Tabbed by: Dom (Offspring_Freak@hotmail.com)

I tabbed this all out by myself.  I figured most of it out by watching an ac=
oustic performance of the song.
INTRO:
 Guitar 1 - Slight Distortion
/---------------------------------------
|--0-1-1-0-1-0-1------------------------
|----------------2-0-0-0-0-0-0-0-0------
|---------------------------------------
|---------------------------------------
|---------------------------------------
|
|
|
|Guitar 2 - Acoustic (listen to CD for strumming pattern)
|  A chord diagramA minorAm           A chord diagramE minorEm
|--0-0-0-0-0-0-0-0-0-0-0-0-0-0-0---------------
|--1-1-1-1-1-1-1-1-0-0-0-0-0-0-0---------------
|--2-2-2-2-2-2-2-2-0-0-0-0-0-0-0---------------
|--2-2-2-2-2-2-2-2-2-2-2-2-2-2-2---------------
|--0-0-0-0-0-0-0-0-2-2-2-2-2-2-2---------------
\------------------0-0-0-0-0-0-0---------------


VERSES:
Guitar 2
---0-0-0-0-0-0-0--0-0-0-0-0-0-0--------------
---0-0-0-0-0-0-0--0-0-0-0-0-0-0--------------
---x-x-x-x-x-x-x--0-0-0-0-0-0-0--------------
---4-4-4-4-4-4-4--2-2-2-2-2-2-2--------------
---3-3-3-3-3-3-3--2-2-2-2-2-2-2--------------
------------------0-0-0-0-0-0-0--------------


CHORUS:
Guitar 2
--0-0-0-0-0-0--------------0-0-0-0-0-0-----------
--1-1-1-1-1-1-0-0-0-0-0-0--1-1-1-1-1-1-----------
--0-0-0-0-0-0-0-0-0-0-0-0--2-2-2-2-2-2-----------
--2-2-2-2-2-2-0-0-0-0-0-0--2-2-2-2-2-2-----------
--3-3-3-3-3-3-2-2-2-2-2-2--0-0-0-0-0-0-----------
--------------3-3-3-3-3-3------------------------


BRIDGE:
Guitar 2
--------------------------------------------
--------------------------------------------
-----4-4----4-4-----2-2/4-4\5/4\5/4---------
--------------------------------------------
-3-3----3-3-----2-2-------------------------
--------------------------------------------

--------------------------------------------
--------------------------------------------
-----4-4----4-4-----2-2/4-4/-5-5------------
--------------------------------------------
-3-3----3-3-----2-2-------------------------
--------------------------------------------


I'm not quite sure about the litlte solo at the end.

Song Order:

INTRO x4

VERSE x5

CHORUS x2

INTRO x3

VERSE x4

CHORUS x2

INTRO x4

BRIDGE

CHORUS - keep playing it until the end.  The Bridge is also played over this=
 riff at one point. =20

Almost there ...

Sign in to get your own page with links to favourite songs and more. You are just one click away...

Login with Facebook Login with Google