Log in

One click and you are in

Login with Facebook Login with Google

Why sign up and log in

Guitar Tabs Explorer
Our Lady Peace chords for Somewhere out there

Guitar chords with lyrics

Title: Somewhere Out There
Album: Gravity


Tuning: Down half a step.  A chord diagramEb MajorEb A chord diagramAbAb A chord diagramDbDb A chord diagramGbGb A chord diagramBb majorBb A chord diagramEb MajorEb
Tabbed By: Greg Smith
Email me comments and corrections at: gregsmith2002@hotmail.com
(strumming patterns may not be exact)



Verse:

Guitar 1:  Repeat this riff 3 times, follow it by A chord diagramE minorEm and G.
           This part only gets play ONCE during the verses,
           then guitar 1 plays the same thing as guitar 2 for
           the rest of the verse.

Eb--------------------------------------------------------
Bb-----3--2--5--3--3--3--3--3-----------------------------
Gb-----2--2--2--2--2--2--2--2-----------------------------
Db--------------------------------------------------------
Ab--------------------------------------------------------
Eb--------------------------------------------------------

Guitar 2: Dsus2, Asus4, G, Em, A chord diagramG+G (first time only, the other times
the A chord diagramAsus4Asus4 is left out) (these chords shown below)

Eb----------0----0---3--0---3--------------------------------
Bb----------3----3---3--0---3--------------------------------
Gb----------2----2---0--0---0--------------------------------
Db---------------2---0--2---0--------------------------------
Ab---------------0---2--2---2--------------------------------
Eb-------------------3--0---3--------------------------------

"Last time I talked to you, you were lonely and out of place.."





Pre-Chorus: (played once before chorus and in between verses)
Guitar 1

Eb--------10------10--------------------------------------
Bb---7-8------5-7-----------------------------------------
Gb--------------------------------------------------------
Db--------------------------------------------------------
Ab--------------------------------------------------------
Eb--------------------------------------------------------

Guitar 2: Em, A chord diagramG+G

Eb--------0---3-------------------------------------------
Bb--------0---3-------------------------------------------
Gb--------0---0-------------------------------------------
Db--------2---0-------------------------------------------
Ab--------2---2-------------------------------------------
Eb--------0---3-------------------------------------------

"And all we are, is all so farrrrrrrrrrr."





Chorus: both guitars use heavy distortion

Guitar 1: (does same thing it does in the verse)

Guitar 2: Dsus2, G, Asus4, Em, A chord diagramG+G (also tabbed above in verse)

"Your falling back to me, the star that I can see. I know your out
there, somewhere out there."





Bridge: violin, followed by: A5, B5, Db5, A chord diagramE5E5

Eb----------------------------------------------------------
Bb----------------------------------------------------------
Gb---2-2-2-2-2-2-2-2-4-4-4-4-4-4-4-4-6-6-6-6-6-6-6-6--------
Db---2-2-2-2-2-2-2-2-4-4-4-4-4-4-4-4-6-6-6-6-6-6-6-6--2---2-
Ab---0-0-0-0-0-0-0-0-2-2-2-2-2-2-2-2-4-4-4-4-4-4-4-4--2---2-
Eb----------------------------------------------------0---0-

"Your falling out of reach, defying dravity..."




I think this is pretty close. Enjoy!

Other versions of Somewhere Out There

Somewhere out thereTabs

Almost there ...

Sign in to get your own page with links to favourite songs and more. You are just one click away...

Login with Facebook Login with Google