Log in

One click and you are in

Login with Facebook Login with Google

Why sign up and log in

Guitar Tabs Explorer
Our Lady Peace tabs for Are you sad

Guitar tabs with lyrics

Group: Our Lady Peace
Album: Spiritual Machines
Tabbed By: Steven Carey (aakornnut999@excite.com)

Another great song by Our Lady Peace.
Tuning: Dropped A chord diagramD MajorD then down half a step (A chord diagramC#C# A chord diagramG#G# A chord diagramC#C# A chord diagramF#F# A chord diagramA#A# A chord diagramD#D#)

**Gtr#1** (acoustic)

Intro:
D#:--------------------------------------------------------
A#:-----2h3--3--2--2h3--5----------------------------------
F#:-----2-2--2--2--2-2--2--7--7--7-7/9\7--7--7--7-7/9\7-7--
C#:-----0-0--0--0--0-0--0--5--5--5-5/7\5--5--5--5-5/7\5-5--
G#:-----0-0--0--0--0-0--0--5--5--5-5/7\5--5--5--5-5/7\5-5--
C#:--0--0-0--0--0--0-0--0--5--5--5-5/7\5--5--5--5-5/7\5-5--


Verse: strumming
D#:-----------------
A#:--3--------------
F#:--2--7--4/12-----
C#:--0--5--2/10--9--
G#:--0--5--2/10--9--
C#:--0--5--2/10--9--


Bridge:
D#:-----------0------
A#:-----------0------
F#:----7----7--------
C#:--9\5--9\5----5~--
G#:--9\5--9\5----3~--
C#:--9\5--9\5--------

Chorus: strumming
D#:-----------------------
A#:--3--------------------
F#:--2--7--4/12-----------
C#:--0--5--2/10--9-10-10--
G#:--0--5--2/10--9-10-10--
C#:--0--5--2/10--9-10-10--

**Gtr#2** (electric with mostly slide)
Most of this guitar part is improvised but if you wanna play it just like
the record you can. But im only tabbing the obvious parts. Try fading in
alot to get the right effect. I use a volume pedal and a light distortion
and it sounds just right.


Intro: (slide all)
D#:--///fade in///2----------------------------------------
A#:------------------8\7\5\3------------2/3\2~-2/3\2/3\2~--
F#:--------------------------2~-2/4\2~---------------------
C#:--------------------------------------------------------


Bridge:
D#:--10~\9~-(12)---10~\9~/12~~~~~--<7>--------------------
A#:-----------------------------------<7>-----------------
F#:-------------------------------------------------------
C#:---------------------------------------5\\\fade out\\--
G#:---------------------------------------3\\\fade out\\--
C#:-------------------------------------------------------
     \\\\\\\\\\slide/////////////


Chorus:
D#:--15~\14~-14/15~\14~------0--15~\14~-14/15~/17~--
A#:------------------------3------------------------
F#:----------------------2--------------------------
C#:-------------------------------------------------
G#:-------------------------------------------------
C#:-------------------------------------------------
     \\\\\\slide///////         \\\\\\\slide//////

2nd time verse is played
D#:-----------------------------------------------
A#:-----2h3-33-2-----2h3-33-5---8\7\5\3-----------
F#:-----2-2-22-2-----2-2-22-2------------2-2/4\2--
C#:--0------------0-------------------------------

Most of the end is the same and then he starts to play along with the
acoustic near the very end. Thats it! Enjoy.


"Are You Sad", by Our Lady Peace
By Dimitry Krementsov

This is just an addition to the previously posted tab.  The previously
posted tab is very good, but I play it a little different.  On the four low
strings I basically play the same chord shapes as in the previous tab, but
the two highest strings(A chord diagramBB and A chord diagramE MajorE) I tune to A chord diagramA augmentedA and D, resulting in DADGAD

tuning (low to high), and I play these strings open along with some of the
the chords voiced on the low strings.  Try it for yourself, see which chords
it works with.

P.S. Everything I said above should actually be 1/2 step down to play along
with the album, but you guys already knew that.

Other versions of Are You Sad

Are you sadChords

Almost there ...

Sign in to get your own page with links to favourite songs and more. You are just one click away...

Login with Facebook Login with Google