Log in

One click and you are in

Login with Facebook Login with Google

Why sign up and log in

Guitar Tabs Explorer
Our Lady Peace chords for 4am

Guitar chords

Our Lady Peace-"4 am" from the album Clumsy

Tune down 1/2 step. A chord diagramEb MajorEb A chord diagramAbAb A chord diagramDbDb A chord diagramGbGb A chord diagramBb majorBb A chord diagramEb MajorEb
Intro: (Relative chords with actual chords in parenteses)

     A chord diagramC# minorC#m (A chord diagramC minorCm)            Asus2(A chord diagramG#sus2G#sus2) A(A chord diagramG#G#)
eb|--------4-4-4-4-------0-0-0-0-------0-0-0-0--|
A chord diagramBb majorBb|--5-5-5-5-5-5-5-5-5-5-0-0-0-0-0-2---2-2-2-2--|
A chord diagramGbGb|--6-6-6-6-6-6-6-6-6-6-2-2-2-2-----2-2-2-2-2--|
A chord diagramDbDb|--6-6-6-6-6-6-6-6-6-6-2-2-2-2-------2-2-2-2--|
A chord diagramAbAb|--4-4-4-4-4-4-4-4-4-4-0-0-0-0-------0-0-0-0--|
A chord diagramEb MajorEb|---------------------------------------------|
       Walked around my.....

     A chord diagramF#F# (A chord diagramFF)              A chord diagramA augmentedA (A chord diagramG#G#)
eb|------2-2-2-2-------------5-5-5-5----------|
A chord diagramBb majorBb|------2-2-2-2-2---2-2-----5-5-5-5-5---5-5--|
A chord diagramGbGb|----3-3-3-3-3-3-3-3-3---6-6-6-6-6-6-6-6-6--|
A chord diagramDbDb|--4-4-4-4-4-4-4-4-4-4-7-7-7-7-7-7-7-7-7-7--|
A chord diagramAbAb|--4-4-4-4-4-4-4-4-4-4-7-7-7-7-7-7-7-7-7-7--|
A chord diagramEb MajorEb|--2-2-2-2-2-2-2-2-2-2-5-5-5-5-5-5-5-5-5-5--|
     Phone call made.....

    A chord diagramE MajorE (A chord diagramD#D#)     A chord diagramA augmentedA (A chord diagramG#G#)    A chord diagramBsus2Bsus2 (A chord diagramA#sus2A#sus2)
eb|------0-0-0-----0-0-0-----0-0-0-0-0-0-0-0--|
A chord diagramBb majorBb|------0-0-0-----2-2-2-----0-0-0-0-0-0-0-0--|
A chord diagramGbGb|----1-1-1-1-2-2-2-2-2-4-4-4-4-4-4-4-4-4-4--|
A chord diagramDbDb|--2-2-2-2-2-2-2-2-2-2-4-4-4-4-4-4-4-4-4-4--|
A chord diagramAbAb|--2-2-2-2-2-0-0-0-0-0-2-2-2-2-2-2-2-2-2-2--|
A chord diagramEb MajorEb|--0-0-0-0-0--------------------------------|
   If I don't make it ...

     A chord diagramD MajorD (A chord diagramC#C#)  C#m(A chord diagramC minorCm) B(A chord diagramA#A#)
eb|----5------------------------------|
A chord diagramBb majorBb|----7-7-------5-5-------4-4-4------|
A chord diagramGbGb|--7-7-7-7-6-6-6-6-4-4-4-4-4-4-4-4--|
A chord diagramDbDb|--7-7-7-7-6-6-6-6-4-4-4-4-4-4-4-4--|
A chord diagramAbAb|--5-5-5-5-4-4-4-4-2-2-2-2-2-2-2-2--|
A chord diagramEb MajorEb|-----------------------------------|
     Hope....figure..wrong...

(Intro: A chord diagramC# minorC#m    A chord diagramAsus2Asus2 A chord diagramA augmentedA     A chord diagramC# minorC#m    A chord diagramAsus2Asus2 A chord diagramA augmentedA

A chord diagramC# minorC#m                       A chord diagramAsus2Asus2                              A chord diagramC# minorC#m
I walked around my good intentions ...

                          A chord diagramAsus2Asus2                   A chord diagramC# minorC#m
I blame my father for the ...

                           A chord diagramA augmentedA
I never thought I ...

       A chord diagramF#F#                             A chord diagramA augmentedA
then a phone call made me ...


Chorus:
    A chord diagramE MajorE          A chord diagramA augmentedA       A chord diagramBB
And if I don't make it known ...

A chord diagramE MajorE         A chord diagramA augmentedA     A chord diagramBB
just like sunny days ...

A chord diagramE MajorE         A chord diagramA augmentedA      A chord diagramBB
we're all dumb ...

      A chord diagramD MajorD             A chord diagramC# minorC#m               A chord diagramBB
and I hope to God ...


Verse2:
A chord diagramC# minorC#m                         A chord diagramAsus2Asus2                          A chord diagramC# minorC#m
I walked around my room not thinking...

                         A chord diagramAsus2Asus2                    A chord diagramC# minorC#m
I blame myself for being ...

                             A chord diagramA augmentedA
I never thought I would ...

       A chord diagramF#F#                             A chord diagramA augmentedA
then a phone call made me ...


Chorus

and I hope to ...
|----------------------------------0-|
|----------------------------------0-|
|-4-4--4-4--4-4-4-4-4-4-4-4-4-4----x-|
|-4-4--4-4--4-4-4-4-4-4-4-4-4-4--x-2-|
|-2-2--2-2--2-2-2-2-2-2-2-2-2-2--x-2-|
|--------------------------------x-0-|


Solo/Bridge:

 guitar1              |===b===|       |===b===|
|----------------------------------------------------------------7--------|
|-------------------------------------------------------------------------|
|-9-11p9-11/13-13--13-13-14-13-13--13-13-14-13-11h13-11\9-9-9--9---9-9-9--|
|-------------------------------------------------------------------------|
|-------------------------------------------------------------------------|
|-------------------------------------------------------------------------|
|                                                                         |
|guitar2                                                                  |
|-------------------------------------------------------------------------|
|-------------------------------------------------------------------------|
|---------9\7--7--7--x--7\6--6--6--x--6/7--7\---2---2---2---2--2----------|
|--------------------x-------------x------------2---2---2---2--2--2--2--2-|
|---------7\5--5--5--x--5\4--4--4--x--4/5--5\---0---0---0---0--0--2--2--2-|
|-----------------------------------------------------------------0--0--0-|

 guitar1                |===b===|       |===b===|
|------------------------------------------------------------------7--------|
|---------------------------------------------------------------------------|
|-9-9-11p9-11/13-13--13-13-14-13-13--13-13-14-13-11h13-11\9-9-9--9---9-9-9--|
|---------------------------------------------------------------------------|
|---------------------------------------------------------------------------|
|---------------------------------------------------------------------------|
|                                                                           |
|guitar2                                                                    |
|---------------------------------------------------------------------------|
|---------------------------------------------------------------------------|
|-----------7/9--9--9\--x--4---4--4--4--4/7--7-6--2---2---2---2--2----------|
|-----------------------x-------------------------2---2---2---2--2--2--2--2-|
|-----------5/7--7--7\--x--2---2--2--2--2/5--5-4--0---0---0---0--0--2--2--2-|
|-------------------------------------------------------------------0--0--0-|

 guitar1              |===b===|
|-------------------------------------------------------------------7-----7----|
|------------------------------------------------------------------------------|
|-9-11p9-11/13-13--13-13-14-13-13-13--13-14p13p11-11h13-11\9-9-9--9---9-9---9-9|
|------------------------------------------------------------------------------|
|------------------------------------------------------------------------------|
|------------------------------------------------------------------------------|
|                                                                              |
|guitar2                                                                       |
|------------------------------------------------------------------------------|
|------------------------------------------------------------------------------|
|---------9\7--7--7--x--7\6--6--6--x--6/7--7\---2---2---2---2--2---------------|
|--------------------x-------------x------------2---2---2---2--2--2--2--2------|
|---------7\5--5--5--x--5\4--4--4--x--4/5--5\---0---0---0---0--0--2--2--2------|
|-----------------------------------------------------------------0--0--0------|

 guitar1               |===b===|
|-------------------------------------|
|-------------------------------------|
|-9-11p9-11/13-13--13-13-14-13-13-13--|
|-------------------------------------|
|-------------------------------------|
|-------------------------------------|
|
|guitar2                                                                  |
|--------------------------------------|
|--------------------------------------|
|-----------7/9--9--9\--x--4---4--4--4-|
|-----------------------x--------------|
|-----------5/7--7--7\--x--2---2--2--2-|
|--------------------------------------|

guitar1
|-------------------------------7-----7-----7---7---|
|---------------------------------------------------|
|-13-14p13p11-11h13-11\9-9-9--9---9-9---9-9---9---9-|
|---------------------------------------------------|
|---------------------------------------------------|
|---------------------------------------------------|
|guitar2
|-------------------------------------------------|
|-------------------------------------------------|
|-4/7--7-6--2---2---2---2--2----------------------|
|-----------2---2---2---2--2--2--2--2-------------|
|-2/5--5-4--0---0---0---0--0--2--2--2-------------|
|-----------------------------0--0--0-------------|

Other versions of 4am

4amTabs

Almost there ...

Sign in to get your own page with links to favourite songs and more. You are just one click away...

Login with Facebook Login with Google