Log in

One click and you are in

Login with Facebook Login with Google

Why sign up and log in

Guitar Tabs Explorer
Gilbert O'Sullivan chords for Alone again naturally (Ver. 2)

Guitar chords with lyrics

  • Tuning: Standard tuning
  • Capo on 4th
  • Difficulty: Beginner
Alone Again (Naturally)
Gilbert O`Sullivan

   A chord diagramF#m7b5F#m7b5
E-----o---
B-----1---
G-----2---
D-----2---
A-----o---
E-----2---

Capo 4

Intro  A chord diagramD MajorD  A chord diagramD6D6  A chord diagramF#m7F#m7  A chord diagramE minor 7Em7  A chord diagramA augmentedA  A chord diagramA7A7  A chord diagramD MajorD


A chord diagramD MajorD              A chord diagramD6D6         A chord diagramDmaj7Dmaj7
Oh In a little while from now
       A chord diagramF#m7F#m7
If I`m not feeling any less sour
  A chord diagramA minorAm                A chord diagramAm7Am7
I promise myself to treat myself
    A chord diagramF#m7b5F#m7b5         A chord diagramB7B7
And visit a nearby tower
    A chord diagramE minorEm
And climbing to the top
     A chord diagramG minorGm           A chord diagramGm7Gm7
Will throw myself off
      A chord diagramD MajorD              A chord diagramD augmentedDaug
In an effort to make clear to whom ever
A chord diagramD6D6                         A chord diagramC#7C#7
What it`s like when you`re shattered
     A chord diagramF#m7F#m7
Left standing in the lurch
     A chord diagramF#m7b5F#m7b5              A chord diagramB7B7
At a church where people saying
   A chord diagramE minorEm
My God that`s tough she stood him up
   A chord diagramG minorGm            A chord diagramGm7Gm7
No point in us remaining
   A chord diagramDmaj7Dmaj7
We may as well go home
   A chord diagramF#m7F#m7        A chord diagramB7B7
As I did on my own
 A chord diagramE minor 7Em7        A chord diagramA7A7        A chord diagramD MajorD
Alone again    naturally
   A chord diagramD6D6               A chord diagramDmaj7Dmaj7
To think that only yesterday
      A chord diagramF#m7F#m7
I was cheerful bright and gay
        A chord diagramA minorAm                  A chord diagramAm7Am7
Looking forward to well who wouldn`t do
    A chord diagramF#m7b5F#m7b5              A chord diagramB7B7
The role I was about to play
       A chord diagramE minor 7Em7
But as if to knock me down
  A chord diagramG minorGm
Reality came around
        A chord diagramD MajorD                A chord diagramD augmentedDaug
And without so much as a mere touch
        A chord diagramD6D6         A chord diagramC#7C#7
Cut me into little pieces
A chord diagramF#m7F#m7
Leaving me to doubt
     A chord diagramF#m7b5F#m7b5           A chord diagramB7B7
Talk about God in His mercy
    A chord diagramE minor 7Em7
Who if He really does exist
A chord diagramG minorGm           A chord diagramGm7Gm7
Why did He desert me
A chord diagramDmaj7Dmaj7         A chord diagramD6D6
In my hour of need
  A chord diagramF#m7F#m7       A chord diagramB7B7
I truly am indeed
  A chord diagramE minor 7Em7       A chord diagramA7A7        A chord diagramD MajorD
Alone again    naturally
   A chord diagramFF
It seems to me that there are more hearts
A chord diagramC majorC                                 A chord diagramG minorGm
Broken in the world that can`t be mended
A chord diagramA7A7      A chord diagramFF       A chord diagramBm7b5 Bm7b5
Left unattended
           A chord diagramAmaj7Amaj7
What do we do
           A chord diagramE minorEm  A chord diagramA augmentedA
What do we do....

A chord diagramDmaj7Dmaj7  A chord diagramD6D6  A chord diagramF#m7F#m7  A chord diagramA minorAm  A chord diagramF#m7b5F#m7b5  A chord diagramB7B7  A chord diagramE minorEm  A chord diagramEm7b5Em7b5  A chord diagramD MajorD

A chord diagramD augmentedDaug  A chord diagramB minorBm  A chord diagramC#7C#7  A chord diagramF#m7F#m7  A chord diagramF#m7b5F#m7b5  A chord diagramB7B7  A chord diagramE minor 7Em7 A chord diagramEm7b5Em7b5  A chord diagramDmaj7Dmaj7


A chord diagramF#m7F#m7  A chord diagramB7B7  (or)


E-----------------------------------------7-8-8-8-|
B------7-7-10-10-7-------7-7-10-10-7---10---------|
G--7-9---------------7-9--------------------------|
D-------------------------------------------------|
A-------------------------------------------------|
E-------------------------------------------------|


E--7-7-----------------------------------------|
B------10-10-8-8-7-7---------------8-8---------|
G--------------------9-9-8-----9-9-----9-------|
D----------------------------9-----------8-9---|
A----------------------------------------------|
E----------------------------------------------|


E--------------------------------------------|
B------8-8--------7-7-7-------7-7-7----------|
G--9-9-----9--7-9-------9-7-9-------9-7-9----|
D--------------------------------------------|
A--------------------------------------------|
E--------------------------------------------|

E--------------------------------------------|
B--7-7-7-10-12-14-14-------------------------|
G--------------------------------------------|
D--------------------------------------------|
A--------------------------------------------|
E--------------------------------------------|


E---------------------------8-8-8-8-7-----------|
B--12-10-10-7-9-10---7-9-10-----------10-10-8-8-|
G-----------------------------------------------|
D-----------------------------------------------|
A-----------------------------------------------|
E-----------------------------------------------|

E--------------------------------------------|
B--7-7-----10-10-8-10-8----------------------|
G------9-9--------------7-9------------------|
D--------------------------------------------|
A--------------------------------------------|
E--------------------------------------------|

E----------5-5------------5-5-7-9------------|
B--3-5-7-7-----7---3-5-7---------------------|
G--------------------------------------------|
D--------------------------------------------|
A--------------------------------------------|
E--------------------------------------------|

 A chord diagramE minor 7Em7        A chord diagramA7A7         A chord diagramD MajorD
Alone again     naturally
    A chord diagramD6D6                    A chord diagramDmaj7Dmaj7
Now looking back over the years
    A chord diagramF# minorF#m                A chord diagramF#m7F#m7
And whatever else that appears
  A chord diagramA minorAm                       A chord diagramAm7Am7
I remember I cried when my father died
      A chord diagramF#m7b5F#m7b5              A chord diagramB7B7
Never wishing to hide the tears
       A chord diagramE minor 7Em7
And at sixty-five years old
   A chord diagramG minorGm                  A chord diagramGm7Gm7
My mother God rest her soul
         A chord diagramD MajorD                  A chord diagramD augmentedDaug
Couldn`t understand why the only man
        A chord diagramB minorBm                  A chord diagramC#7C#7
She had ever loved had been taken
A chord diagramF#m7F#m7
Leaving her to start
       A chord diagramF#m7b5F#m7b5         A chord diagramB7B7
With a heart so badly broken
   A chord diagramE minor 7Em7
Despite encouragement from me
   A chord diagramG minorGm              A chord diagramGm7Gm7
No words were ever spoken
    A chord diagramDmaj7Dmaj7           A chord diagramD6D6
And when she passed away
  A chord diagramF#m7F#m7                A chord diagramB7B7
I cried and cried all day
 A chord diagramE minor 7Em7        A chord diagramA7A7        A chord diagramF#m7F#m7  A chord diagramB7B7
Alone again    naturally
  A chord diagramE minor 7Em7       A chord diagramA7A7        A chord diagramD MajorD  A chord diagramG minorGm  A chord diagramD MajorD
Alone again    naturally

Alone Again Naturally chords

Gilbert O'Sullivan chords for Alone again naturally (Ver. 2) Alone Again (Naturally) is a song by Irish singer-songwriter Gilbert OSullivan. It was released in 1972 at the same time as (but not on) the album, Back to Front. In total, the single spent six weeks, non-consecutively, at #1 on the United States Billboard Hot 100 singles chart. Billboard ranked it as the No. 2 song for 1972. In Casey Kasems American Top 40 of the 1970s, Alone Again (Naturally) ranked as the fifth most-popular song of the decade (Debby Boones You Light Up My Life was no.1). Alone Again (Naturally) also spent six weeks at number one on the Easy Listening chart. The track reached no.3 in the UK Singles Chart.

Other versions of Alone Again Naturally

Alone again naturallyChords

Almost there ...

Sign in to get your own page with links to favourite songs and more. You are just one click away...

Login with Facebook Login with Google