Log in

One click and you are in

Login with Facebook Login with Google

Why sign up and log in

Guitar Tabs Explorer
Ozzy Osbourne bass tabs for Paranoid

Bass tabs with lyrics

PARANOID

Artist			Ozzy Osbourne
Original Music		Anthony Iommi, John Osbourne,
			William Ward and Terence Butler
Performance On		Ozzy Osbourne - The Ozzman Cometh
Tabbed by		Oscar Esk (jskaik@hotmail.com)

INTRO:

2 bars in silence (count 8 times)

then play:
			  e e e e
+-----------------+-----------------+
|-----------------|-----------------|
|-----------------|---------5-2-----|
+-----------------+-------------5-3-+

 e e e e e e e e  e e e e e e e e
+-----------------+-------------7-9-+
|-----------------|---------7-9-----|
|-7-7-7-7-7-7-7-7-|-7-7-7-7---------|
+-----------------+-----------------+

PATTERN A:
 e e e e e e e e  e e e e e e e e  e e e e e e e e  e Q q q
+-----------------+-------------7-9-+-----------------+----------+
|-----------------|---------7-9-----|-----------------|-5--------|
|-7-7-7-7-7-7-7-7-|-7-7-7-7---------|-5-5-5-5-5-5-5-5-|---5-7\10-|
+-----------------+-----------------+-----------------+----------+

PATTERN A2:
 e e e e e e e e  e e e e e e e e  e e e e e e e e  e Q
+-----------------+-----------------+-----------------+-------+
|-----------------|-----------------|-----------------|-5-----|
|-7-7-7-7-7-7-7-7-|-7-7-7-7-7-7-7-7-|-5-5-5-5-5-5-5-5-|---5-7-|
+-----------------+-----------------+-----------------+-------+

PATTERN "END A":

 e e e e e e e e  e e e e e e e e  e e e e e e e e  e Q
+-----------------+-------------7-9-+-----------------+-------+
|-----------------|---------7-9-----|-----------------|-5-----|
|-7-7-7-7-7-7-7-7-|-7-7-7-7---------|-5-5-5-5-5-5-5-5-|---5-7-|
+-----------------+-----------------+-----------------+-------+

 e e e e e e e e  e e e e e e e e  e e e e e e e e  e Q e
+-----------------+-------------7-9-+-----------------+-------+
|-----------------|---------7-9-----|-----------------|-5-4---|
|-7-7-7-7-7-7-7-7-|-7-7-7-7---------|-5-5-5-5-5-5-5-5-|-----0-|
+-----------------+-----------------+-----------------+-------+

PATTERN B:
 e e e e e e e e  e e q e e q  e e e e e e e e
+-----------------+-------------+-----------------+
|-----------------|---5-----7---|-----------------|
|-7-7-7-7-7-7-7-7-|-3---3-5---5-|-7-7-7-7-7-7-7-7-|
+-----------------+-------------+-----------------+


 e e e e e e e e
+-----------------+
|-----------------|
|-7-7-7-7-7-7-7-7-|
+-----------------+

PATTERN C:
  e e e e e e e e   e e e e e e e e
+-------------------+-------------------+
|*-----------------*|*-----------------*|
|*-7-7-7-7-7-7-7-7-*|*-5-5-5-5-5-5-5-5-*|
+-------------------+-------------------+

  e e e e e e e e   e e e e e e e e  q q
+-------------------+------------------+----------+
|*-----------------*|------------------|----------|
|*-7-7-7-7-7-7-7-7-*|--5-5-5-5-5-5-5-2-|-----14\5-|
+-------------------+------------------+-3-5------+

PERFORMANCE NOTES:

		Intro (intro, Instr.)	x1
		A (estrofa) 		x2
		B 			X2
		A (estrofa) 		x2
		C (cont. estrofa)	x2
		A (Instr.) 		x2
		A (estrofa) 		x2
		A (solo) 		x4	exactly, A2, A2, A, A
		A (Instr.) 		x2
		A (estrofa) 		x2
		B 			X2
		A (estrofa) 		x2
		A (end A)		x1

Almost there ...

Sign in to get your own page with links to favourite songs and more. You are just one click away...

Login with Facebook Login with Google