Log in

One click and you are in

Login with Facebook Login with Google

Why sign up and log in

Guitar Tabs Explorer
Ozzy Osbourne bass tabs for No more tears

Bass tabs

Band: Ozzy Osbourne
Album: No More Tears
Bass tab Transcribed by Ulisses Righi
geheen@yahoo.com.br

              (4x)          "The light on..."
E|---5h7----5h7----5h7--------|-----5h7----------|--5h7----5h7--5h7------|
A|--------0-0----0-0----0-----|-----------0-0-0--|------0-0----0----0-0--|
D|----------------------------|------------------|-----------------------|
G|----------------------------|------------------|-----------------------|
 "Your mama told you you're..."                   (2x)
E|-----------------------------------------------------------------------|
A|-5---5-5-5-5-5-7---5-5-5-5-5-5-5-8---5-5-5-5-5-13-17-17-17-17-17-17-17-|
D|-----------------------------------------------------------------------|
G|-----------------------------------------------------------------------|
 "Here..."             "No more tears..."        (4x)
E|---------------------------------|----7-----5-----4-----3--------------|
A|---------------------------------|-0-----0-----0-----0-----------------|
D|-7--7-7-7-7-7-7-8--8-8-8-8-8-8-8-|-------------------------------------|
G|---------------------------------|-----------------------------3-4-3-1-|
1st guitar solo     (3x)
E|-------------------------|---------------------------------------------|
A|-------------------------|----------------------------------------5--5-|
D|---------5-5-5-5-5-5-5-5-|---------------------------------------------|
G|-1-3-3-------------------|--1-1-1-1--3-3-3-3--5-5-5-5-6-6-8-8----------|
             (4x)                    (4x)
E|---5h7----5h7----5h7--------|-----5h7----------|--5h7----5h7--5h7------|
A|--------0-0----0-0----0-----|-----------0-0-0--|------0-0----0----0-0--|
D|----------------------------|------------------|-----------------------|
G|----------------------------|------------------|-----------------------|
                                   (2x)
E|-----------------------------------------------------------------------|
A|-5---5-5-5-5-5-7---5-5-5-5-5-5-5-8---5-5-5-5-5-13-17-17-17-17-17-17-17-|
D|-----------------------------------------------------------------------|
G|-----------------------------------------------------------------------|
                                   (4x)
E|---------------------------------|----7-----5-----4-----3--------------|
A|---------------------------------|-0-----0-----0-----0-----------------|
D|-7--7-7-7-7-7-7-8--8-8-8-8-8-8-8-|-------------------------------------|
G|---------------------------------|-----------------------------3-4-3-1-|

.----------------.
|h - Hammer   |  Black and Ozzy HP - www.blackandozzy.cjb.net
|/ - Slide Up  |
|\ - Side Down  |
|b() - Bend to ()|
|p - Pull off  |
'----------------

Almost there ...

Sign in to get your own page with links to favourite songs and more. You are just one click away...

Login with Facebook Login with Google