Log in

One click and you are in

Login with Facebook Login with Google

Why sign up and log in

Guitar Tabs Explorer
Ozzy Osbourne bass tabs for Mr  crowley

Bass tabs

Mr. Crowley - Ozzy Osbourne

This intro was supposed 2 be done with organ/piano but i tabbed this out myself on
the bass...email me if u have and comments...Football_pro295@hotmail.com.
INTRO

G--------------------------------------------
D----------------5---7-----------------7---5-
A--5---7-8---------------7---0---------------
E--------------------------------------------


G---------------------4---5------------------
D---------5---7--------------------5---------
A--8-----------------------------------------
E----------------------------------------8---


G--5---4--------------4---5---7---9---4------
D---------------7----------------------------
A------------------------------------------7-
E--------------------------------------------


G--------------------------------------------
D---7----8-----------------------------------
A-----------------8---10--8--7---8/12~~~-----
E--------------------------------------------


G--------------------------------------------
D------------------------5---7---------------
A--8--7--5---7-8---------------7---0---------
E--------------------------------------------

G----------------------------4---5-----------
D---7---5---------5---7--------------5-------
A------------8-------------------------------
E------------------------------------------8-


G--5---4--------------4---5---7---9---4------
D---------------7----------------------------
A----------------------------------------7---
E--------------------------------------------


G--------------------------------------------
D----7---8-----------------------------------
A-----------------8---10--8--7---8/12~~~-----
E--------------------------------------------


 Lyrics Begin: "Mr. Crowley"........(00:57)

G--------------------------------------------
D--0-----0---0-0----7-------0---0--0-0-------
A----------------------------8---------------
E--------------------------------------------

G--------------------------------------------
D--------------------------------------------
A--1---1--1-1h3-1-0--1--1---3--3-------------
E--------------------------------------------


G--------------------------------------------
D--0-----0---0-0----7-------0---0--0-0-------
A----------------------------8---------------
E--------------------------------------------


G--------------------------------------------
D--------------------------------------------
A--1---1--1-1h3-1-0--1--1---3--3-------------
E--------------------------------------------


G--------------------------------------------
D--------------------------------------------
A--1--3---------------0----------------------
E-----------0--2--3-------3--2--3------------


G--------------------------------------------
D--------------------------------------------
A--------------0-----------------------------
E--0--2--3-------3--2--3---------------------


G--------------------------------------------
D--0--0--0--0------0--0--0--3--0-------------
A------------------3-------------------------
E--------------------------------------------


G--------------------------------------------
D--------------------------------------------
A--3--------------0--------------------------
E-----0--2--3-------3--2--3------------------


G--------------------------------------------
D--------------------------------------------
A--------------0-----------------------------
E--0--2--3-------3--2--3---------------------


G--------------------------------------------
D--0--0--0--0--------------------------------
A------------------3~~~~---------------------
E--------------------------------------------


"Mr. Charming"........(1:33)

G--------------------------------------------
D--0-----0---0-0----7-------0---0--0-0-------
A----------------------------8---------------
E--------------------------------------------

G--------------------------------------------
D--------------------------------------------
A--1---1--1-1h3-1-0--1--1---3--3-------------
E--------------------------------------------


G--------------------------------------------
D--0-----0---0-0----7-------0---0--0-0-------
A----------------------------8---------------
E--------------------------------------------


G--------------------------------------------
D--------------------------------------------
A--1---1--1-1h3-1-0--1--1---3--3-------------
E--------------------------------------------


G--------------------------------------------
D--------------------------------------------
A--1--3---------------0----------------------
E-----------0--2--3-------3--2--3------------


G--------------------------------------------
D--------------------------------------------
A--------------0-----------------------------
E--0--2--3-------3--2--3---------------------


G--------------------------------------------
D--0--0--0--0------0--0--0--3--0-------------
A------------------3-------------------------
E--------------------------------------------


G--------------------------------------------
D--------------------------------------------
A--3--------------0--------------------------
E-----0--2--3-------3--2--3------------------


G--------------------------------------------
D--------------------------------------------
A--------------0-----------------------------
E--0--2--3-------3--2--3---------------------


G--------------------------------------------
D--0--0--0--0--------------------------------
A------------------3~~~~---------------------
E--------------------------------------------


G--------------------------------------------
D--------------------------------------------
A--5---5--5--5-\-1---1--1--1---3---3--3--3---
E--------------------------------------------


G--------------------------------------------
D--------------------------------------------
A--5---5--5--3--1---1--1--1------------------
E-----------------------------0---0--0--0----


G-------------------------------------------------
D-------------------------------------------------
A--0--0--0--0--0--0--0--0--0--0--0--0--0--0--0--0~
E-------------------------------------------------


G---------------------------------------------
D---------------------------------------------
A--5---5--5--5-\-1---1--1--1---3---3--3--3----
E---------------------------------------------


G---------------------------------------------
D---------------------------------------------
A--5---5--5--3--1---1--1--1-------------------
E------------------------------0---0--0--0----


G---------------------------------------------
D---------------------------------------------
A--0--0--0--0--0--0--0--0--0~~~---------------
E---------------------------------------------


"Mr. Crowley"........(2:44)

G---------------------------------------------
D--0-----0---0-0----7-------0---0--0-0--------
A----------------------8----------------------
E---------------------------------------------

G---------------------------------------------
D---------------------------------------------
A--1---1--1-1h3-1-0--1--1---3--3--------------
E---------------------------------------------


G---------------------------------------------
D--0-----0---0-0----7-------0---0--0-0--------
A----------------------------8----------------
E---------------------------------------------


G---------------------------------------------
D---------------------------------------------
A--1---1--1-1h3-1-0--1--1---3--3--------------
E---------------------------------------------


G---------------------------------------------
D---------------------------------------------
A--1--3---------------0-----------------------
E-----------0--2--3-------3--2--3-------------


G---------------------------------------------
D---------------------------------------------
A--------------0------------------------------
E--0--2--3-------3--2--3----------------------


G---------------------------------------------
D--0--0--0--0------0--0--0--3--0--------------
A------------------3--------------------------
E---------------------------------------------


G---------------------------------------------
D---------------------------------------------
A--3--------------0---------------------------
E-----0--2--3-------3--2--3-------------------


G---------------------------------------------
D---------------------------------------------
A--------------0------------------------------
E--0--2--3-------3--2--3----------------------


G---------------------------------------------
D--0--0--0--0---------------------------------
A------------------3~~~~----------------------
E---------------------------------------------


G---------------------------------------------
D---------------------------------------------
A--5---5--5--5-\-1---1--1--1---3---3--3--3----
E---------------------------------------------


G---------------------------------------------
D---------------------------------------------
A--5---5--5--3--1---1--1--1-------------------
E------------------------------0---0--0--0----

G-------------------------------------------------
D-------------------------------------------------
A--0--0--0--0--0--0--0--0--0--0--0--0--0--0--0--0~
E-------------------------------------------------


G---------------------------------------------
D---------------------------------------------
A--5---5--5--5-\-1---1--1--1---3---3--3--3----
E---------------------------------------------


G---------------------------------------------
D---------------------------------------------
A--5---5--5--3--1---1--1--1-------------------
E------------------------------0---0--0--0----


G-------------------------------------------------
D-------------------------------------------------
A--0--0--0--0--0--0--0--0--0--0--0--0--0--0--0--0~
E-------------------------------------------------


G---------------------------------------------
D--------------5--5-5-5-------------3--3-3-3--
A--3/5--5-5-5------------3--3-3-3-------------
E---------------------------------------------


G---------------------------------------------
D---------------------------------------------
A--1---1--1--1--------------------------------
E--------------------0---0--0--0--------------


G-------------------------------------------------
D-------------------------------------------------
A--0--0--0--0--0--0--0--0--0--0--0--0--0--0--0--0~
E-------------------------------------------------


G---------------------------------------------
D--------------5--5-5-5-------------3--3-3-3--
A--3/5--5-5-5------------3--3-3-3-------------
E---------------------------------------------


G---------------------------------------------
D---------------------------------------------
A--1---1--1--1--------------------------------
E--------------------0---0--0--0--------------


G-------------------------------------------------
D-------------------------------------------------
A--0--0--0--0--0--0--0--0--0--0--0--0--0--0--0--0~
E-------------------------------------------------

Song Starts To Fade....................

G---------------------------------------------
D--------------5--5-5-5-------------3--3-3-3--
A--3/5--5-5-5------------3--3-3-3-------------
E---------------------------------------------


G---------------------------------------------
D---------------------------------------------
A--1---1--1--1--------------------------------
E--------------------0---0--0--0--------------


G-------------------------------------------------
D-------------------------------------------------
A--0--0--0--0--0--0--0--0--0--0--0--0--0--0--0--0~
E-------------------------------------------------


G---------------------------------------------
D--------------5--5-5-5-------------3--3-3-3--
A--3/5--5-5-5------------3--3-3-3-------------
E---------------------------------------------


G---------------------------------------------
D---------------------------------------------
A--1---1--1--1--------------------------------
E--------------------0---0--0--0--------------


G-------------------------------------------------
D-------------------------------------------------
A--0--0--0--0--0--0--0--0--0--0--0--0--0--0--0--0~
E-------------------------------------------------

Tabbed By: Matt

Almost there ...

Sign in to get your own page with links to favourite songs and more. You are just one click away...

Login with Facebook Login with Google