Log in

One click and you are in

Login with Facebook Login with Google

Why sign up and log in

Guitar Tabs Explorer
Ozzy Osbourne tabs for Live and loud album

Guitar tabs

Album- Live & Loud(2 Discs)

1.INTRO

2.PARANOID
Intro
e|---------------------------------------|
A chord diagramBB|---------------------------------------|
A chord diagramG+G|------------------------7-h9------7-h9-|
A chord diagramD MajorD|-9>----9>----9>----7-h9------7-h9------|
A chord diagramA augmentedA|-7>----7>----7>------------------------|
A chord diagramE MajorE|---------------------------------------|


Verse
e|-----------------|-------------------|-----------------|------------|
A chord diagramBB|-----------------|-------------------|-----------------|------------|
A chord diagramG+G|-----------------|-------------------|-----------------|-7-----9----|
A chord diagramD MajorD|-9-9-9-9-9-9-9-9-|-9-9-9-9-----------|-7-7-7-7-7-7-7-7-|-7-7-9-9----|
A chord diagramA augmentedA|-7-7-7-7-7-7-7-7-|-7-7-7-7-----------|-5-5-5-5-5-5-5-5-|-5-5-7-7----|
A chord diagramE MajorE|-----------------|---------------|-----------------|------------|
 PM.........................|           |...............|

Interlude
e|-----------|-----------------|-----------------|
A chord diagramBB|-----------|-----------------|-----------------|
A chord diagramG+G|-----------|-----------------|-----------------|
A chord diagramD MajorD|-9>--5>-7>-|-9-9-9-9-9-9-9-9-|-9-9-9-9-9-9-9-9-|
A chord diagramA augmentedA|-7>--3>-5>-|-7-7-7-7-7-7-7-7-|-7-7-7-7-7-7-7-7-|
A chord diagramE MajorE|-----------|-----------------------------------|
             PM.................................|

Chorus
e|------|------|
A chord diagramBB|------|------|
A chord diagramG+G|------|------|
A chord diagramD MajorD|-9>---|-5>---|
A chord diagramA augmentedA|-7>---|-3>---|
A chord diagramE MajorE|------|------|


Solo: this solo is very hard !!!
e|-------------------|-------------------|----------------------|
A chord diagramBB|-------------------|-------------------|----------------------|
A chord diagramG+G|-12p9----9---------|-----9----9--------|----------------------|
A chord diagramD MajorD|------12-----------|-------12---12-9---|----------------------|
A chord diagramA augmentedA|-------------------|-------------------|-10h12-10h12-107-7---|
A chord diagramE MajorE|-------------------|-------------------|----------------------|

e|------------------|------------------|---------------------------|
A chord diagramBB|------------------|------------------|-----8-10-10b12r10p8-10b12-|
A chord diagramG+G|------------------|----------7h9-9---|-7-9-----------------------|
A chord diagramD MajorD|------------------|------7h9---------|---------------------------|
A chord diagramA augmentedA|-10-7---7---------|-7h10-------------|---------------------------|
A chord diagramE MajorE|------------------|------------------|---------------------------|

e|-------------------|--------------------|-------------------|
A chord diagramBB|-r10p8-10--8-------|--------------17-15-|-17----17----17-15-|
A chord diagramG+G|-------------9-9-9-|-7-9-9-9-9/16-------|-------------------|
A chord diagramD MajorD|-------------------|--------------------|-------------------|
A chord diagramA augmentedA|-------------------|--------------------|-------------------|
A chord diagramE MajorE|-------------------|--------------------|-------------------|

e|-17b19-17b19-17b19r17p15-17p15----|-15p12----------------------------|
A chord diagramBB|-------------------------------17-|-------15-15p12-------------------|
A chord diagramG+G|----------------------------------|----------------14-12-14-14p12----|
A chord diagramD MajorD|----------------------------------|-------------------------------14-|
A chord diagramA augmentedA|----------------------------------|----------------------------------|
A chord diagramE MajorE|----------------------------------|----------------------------------|

e|--------------------------|-----------------------------------|
A chord diagramBB|--------------------------|-----------------------------------|
A chord diagramG+G|-12----12-14b16r14-12-----|-14b16--12h14p12----12-------------|
A chord diagramD MajorD|----14--------------------|-----------------14----14----------|
A chord diagramA augmentedA|--------------------------|--------------------------12h13h14-|
A chord diagramE MajorE|--------------------------|-----------------------------------|

e|-----------------------------|---------------------|-------------|
A chord diagramBB|-----------------------------|---------------------|-------------|
A chord diagramG+G|-----------------------------|-----------12--------|-------------|
A chord diagramD MajorD|-12--------------------------|-12--12-14----14-12--|-14-12----14-|
A chord diagramA augmentedA|-----14-12-14p12----12h13h14-|---------------------|-------------|
A chord diagramE MajorE|-----------------15----------|---------------------|-------------|

3.I DON'T WANT TO CHANGE THE WORLD

|-------|-----------------------------|----------------------------
|-------|-----------------------------|----------------------------
|-------|-----------------------------|---------------2--"Huh!"----
|-------|-0h2-----0h2-------------5/7-|-0h2-----2p0---2------------
|-x/17\-|-0---0-0-0---0-0-0-0-3p0-3/5-|-0---0-0-0-----0------------
|-------|-----------------------------|-------------3--------------

2nd time:
|-----------------------------|------------------------------------
|-----------------------------|------------------------------------
|-----------------------------|------------------------------------
|-0h2-----0h2-------------5/7-|-0h2-----2p0-----PH--PH-------------
|-0---0-0-0---0-0-0-0-3p0-3/5-|-0---0-0-0---0-0-5~~-3~~------------
|-----------------------------|------------------------------------

"I don't wanna change the world..."
|------------------------------------------------------------------
|----------3---3----------------------3-----3----------------------
|-2--------2---0----------------------0-----2-------------2--------
|-2--------0---0------------------0---0-----0-------------2--------
|-0-----------------------------------------0-----0-------0--------
|--------0-2---3------------------2---3--------------3-------------

|----------------------------------||2nd time:---------------------
|----------17----------------------||-------8----------------------
|-------16^--^16-14----------------||----10^-^10^-^10^-^10^~~~~~---
|-14-14-------------16-14----------||------------------------------
|-------------------------16-14----||------------------------------
|-------------------------------17-||------------------------------

"You know it ain't easy...."
|-----------------------------|------------------------------------
|-----------------------------|------------------------------------
|-----------------------------|---------------4---2----------------
|-----------------------------|---------------4---2----------------
|---4--4-4-----4----4---4-4-4-|----4--4-4-----2---0----------------
|-0-2--2-2-0-0-2--0-2---2-2-2-|-0--2--2-2-0-0----------------------

Guitar Solo:
|-----------------------------------------|-15-----------------------
|-----8-----8-------10^-^10-8---10---8~~~-|---15---------------------
|-8h9---8h9---8h9p8-----------9----9------|-----14^-^14-12----12-14^-
|-----------------------------------------|----------------14--------
|-----------------------------------------|--------------------------
|-----------------------------------------|--------------------------

--15-------17^~~~~(17)\-|------17------17------17-----(17)-----------|
------------------------|-17^-----17^-----17^-----17^-----17^-^17p15-|
-----14-12--------------|--------------------------------------------|
------------------------|--------------------------------------------|
------------------------|--------------------------------------------|
------------------------|--------------------------------------------|

|-17----16----15----14----15------------|
|----14----14----14----14---------PH----|
|----------------------------16^--14~~~-|
|---------------------------------------|
|---------------------------------------|
|---------------------------------------|

|-PM..........------PM..........-------|-----------------------------------------
|-------------PH~~~~------------PH~~~~-|-----------------------------------------
|-------------5-----------------7------|-------------------------------------14~-
|-5-6-7-5-6-7-------7-8-9-7-8-9--------|-7-8-9-7-8-9-121314121314141516141516----
|--------------------------------------|-----------------------------------------
|--------------------------------------|-----------------------------------------

|-------------------/=========\-------------------
|----------------T-/-----------\------------------
|-16^--^(16)p14-21^-(21)-p-4----(4)-2h4-2~~~~~~~~-
|-------------------------------------------------
|-------------------------------------------------
|-------------------------------------------------

|--------------------------------------|----------------------|
|----5-----5-----5----5--3-~~~-----(0)-|---7---7---7---7---5--|
|-7^----7^----7^---7^----5^-----x\-(0)-|-9^--9^--9^--9^--7^---|
|--------------------------------------|----------------------|
|--------------------------------------|----------------------|
|--------------------------------------|----------------------|

|-------|---------------------|--------------1215-171512------171512-
|-5--5--|---5---5---5---5---3~~~~~---------15-----------151215-------
|-7--5--|-7^--7^--7^--7^--5^--|-----x\-------------------------------
|-------|---------------------|--------------------------------------
|-------|---------------------|--------------------------------------
|-------|---------------------|---------(0)--------------------------

These are 20's, 21's and 22's...not 1's, 2's and 0's...

--------171512------171512----------201715------201715------2220---------
-151215-------151215------17-15/1717------201720------201720----22222022-
-------------------------------------------------------------------------
-------------------------------------------------------------------------
-------------------------------------------------------------------------
-------------------------------------------------------------------------

-222017----------|-------------------------------------------------
--------22-20-22-|-------------------------------------------------
-----------------|-------------------------------------------------
-----------------|-------------------------------------------------
-----------------|-------------------------------------------------
-----------------|-------------------------------------------------

"Don't tell me stories cause yesterays's glories..."
|-------0---------------------------------5---------------0--------
|-----------0--------3---5---3--------3-------3--------------0-----
|-----6-------6----------------0----------------0-------6------6---
|---7-----------7--5---5---------5--4---4---------4---7----------7-
|-0-------------------------------------------------0--------------
|------------------------------------------------------------------

4.DESIRE

|-----------------------------------------------------------
|-----------------------------------------------------------
|-----------------------------------------------------------
|-----------------------------------------------------------
|-4-4---4-4-4---4-4-4---4-4-4-------------------------------
|-2-2---2-2-2---2-2-2---2-2-2--and on and on...-------------

                                                  ||1st================||
|-----------------------------------------------------------------------
|--------------------------5--4-----------------------------------------
|-2-----------4------------4--4---2-----------4----------------4^^(4)p2-
|-2-----------4-------------------2-----------4----------2--------------
|--------------------------------------------------------2--------------
|-----------------------------------------------------------------------

2nd=====================================||
|-----------------------------------------
|-----------------------17--17--17--17-\--
|-----------------------16^-16^-16^-16^\--
|-----------------------------------------
|-4--4----4--4--4--/-\--------------------
|-2-------2--2--2-------------------------

|---------------------------------------------------------------------
|---------5------x------------5------5-4-------------5----x-4---------
|---------4------x--4---------4------4-4-------------4----x-4---------
|-4-------2------x--4---------2------2-4------4------2----x-4------2--
|-4-----------------2-----2-2----2-2----------4-------------2----2-2--
|-2--2-2----------------------------------x-x-2--0-2-------------0-0--

|-----------------------------------------------------------
|---------5------x-----------5------5-4---------------------
|---------4------x--4--------4------4-4---------------------
|---------2------x--4--------2------2-4------4--------------
|-4-----------------2----2-2----2-2----------4--------------
|-2--0-2---------------------------------x-x-2--0-2-repeat as above...

"I always knew what i wanted to be..."
|--------------------------------------------------------------------
|--------------------------------5--5--------------------------------
|-PM...........................--4--4--------4--4--------------------
|--------------------------------2--2--------4--4--------2-----2-----
|-4-4-4-4-4-4-4-4-4-4-4-4-4-4-4--------------2--2-----2--2-----2--4--
|-2-2-2-2-2-2-2-2-2-2-2-2-2-2-2-----------------------0--0-----0--2--

"It drives them crazy....cause i wont be cool"
|-----------------------------------------------------------
|---------------5-------------------------------------------
|---------------4-----------------4-----------------2-------
|-2p0-----------2-----------------4-----------------2-------
|-2p0--4--4--4-----------4--4--4--2--------4--4--4--0-------
|------2--0--2-----------2--0--2-----------2--0--2----------

"It's the same old desire..."
|-----------------------------------------------------------
|-----------------------------------------------------------
|-4--4--4--4--4-------------2--------------------4~~~~~~--2-
|-4--4--4--4--4-------4-----0------2---2------x--4--------2-
|-2--2--2--2--2---4---4-----0------2---2------x-------------
|-----------------2---2--------------0----------------------

HALF TIME FEEL:
|----------------------------|------------------------------
|-----------------PH---------|-------------PM---------------
|------------------4~~~~~~~--|--------------4~~~~--2--------
|------------------4---------|--------------4------2--------
|-2-4------4-----------------|-2-4------4-------------------
|-0-2----0-2-----------------|-0-2----0-2-------------------

|------------------\--//-----|------------------------------
|-------------PH-4^\\//------|-------------PM---------------
|----------------4^-^^-------|--------------4~~~~--2--------
|----------------------------|--------------4------2--------
|-2-4------4-----------------|-2-4------4-------------------
|-0-2----0-2-----------------|-0-2----0-2-------------------end half time feel


Solo:
|-7-----------7----------7-----------7----------7----------------
|---10p7-10^----10p7-------10p7-10^----10p7-------10p7-----10/12-
|--------------------9^---------------------9^---------10^-------
|----------------------------------------------------------------
|----------------------------------------------------------------
|----------------------------------------------------------------

|-9----------9----------10-10-----12------12---14-------------------------
|---12p9-12^---12p9--------13^----15^-----15^--17^-17^17^17^17^17^17^-^17-
|-------------------11^---------------------------------------------------
|-------------------------------------------------------------------------
|-------------------------------------------------------------------------
|-------------------------------------------------------------------------

|-14--------19^\-|---------------------2-5-|-2h5p2---\--//--
|-----17~~-------|-----------------2-5-----|-------4^\\//---
|----------------|-------------2-4---------|-------4^-^^----
|----------------|---------2-4-------------|----------------
|----------------|-----2-4-----------------|----------------
|----------------|-2-5---------------------|----------------

|-------------------------|---21-----------21^--^21--21--20--19-|
|-21^-^21p19----19~~-21^--|------21^--19--x---------------------|
|------------20-----------|---------------x---------------------|
|-------------------------|-------------------------------------|
|-------------------------|-------------------------------------|
|-------------------------|-------------------------------------|

|-19^-19^-19^-19^-19p17-------|-----------------------|
|-----------------------19^-\-|----2-5p2----2-5p2-----|
|-----------------------------|-4^-------4^-------4^--|
|-----------------------------|-----------------------|
|-----------------------------|-----------------------|
|-----------------------------|-----------------------|

|------------------------|----------------------------------|
|----7-10p7----7-10p7----|------9-12p9------9-12p9----------|
|-9^--------9^--------9^-|-11^---------11^---------11^~~----|
|------------------------|----------------------------------|
|------------------------|----------------------------------|
|------------------------|----------------------------------|

|---------------------------14-|-171614--14-191714--14-171614--14-191714--14-|
|------14-17p14--17^--\-/17----|-------17---------17---------17---------17---|
|-16^--------------------------|---------------------------------------------|
|------------------------------|---------------------------------------------|
|------------------------------|---------------------------------------------|
|------------------------------|---------------------------------------------|

|-171614---14-191714---14-19^~~~--\-|
|-------17----------17--------------|
|-----------------------------------|
|-----------------------------------|
|-----------------------------------|
|-----------------------------------|
Palm Mute:
|---------------------------------|---------------------------------|
|---------------------------------|---------------------------------|
|-4-2-----4-2-4-2-----4-2-4-2-----|-4-2-4-2-----4-2-4-2-----4-2-----|
|-----4-2---------4-2---------4-2-|---------4-2---------4-2-----4-2-|
|---------------------------------|---------------------------------|
|---------------------------------|---------------------------------|
w/ slide:
|-----------------------------------------------------------
|----------5-/(6)/-7---7-/-9--9-/-12--14/----17^------------
|--3-/-4-/-5-/(6)/-7---7-/-9--9-/-12--14/-------------------
|--3-/-4-/-5-/(6)/-7---7-/-9--9-/-12------------------------
|-----------------------------------------------------------
|-----------------------------------------------------------

5.MR.CROWLEY

(Synth. arr. for gtr.)
 A chord diagramDmDm                A chord diagramA minorAm                  A chord diagramFF               A chord diagramC majorC
|-----------------|-------------------|---------------|---------------------|
|-----------------|-------------------|---------------|---------------------|
|-----------------|-2------------2--0-|-----0---2---4-|-5---0------5---4----|
|--0---2---3---5--|------2------------|-3-------------|---------------------|
|-----------------|----------0--------|---------------|---------3-----------|
|-----------------|-------------------|---------------|---------------------|

 A chord diagramA minorAm              A chord diagramE minorEm          A chord diagramA minorAm A chord diagramA#A#  A chord diagramFF    A chord diagramG+G  A chord diagramFF  A chord diagramE MajorE  A chord diagramFF  A chord diagramA augmentedA
|---------------|-----------|-5--6--1-|--3--1--0--1-|-----------------------|
|-------------3-|-5---------|-5--6--1-|--3--1--0--1-|-----------------------|
|-2---4---5-----|-----4-----|-5--7--2-|--0--2--1--2-|-2---------------------|
|---------------|---------2-|-7--8--3-|--0--3--2--3-|----------3v(2)~-------|
|---------------|-----------|-7--8----|--------2----|-----------------------|
|---------------|-----------|-5--6--1-|--3--1--0--1-|-----------------------|


Verse 1

|-----------|----------|---------------------|------------|----------|-------|
|-----------|----------|---------------------|------------|----------|-------|
|-7---------|-7--------|-3--X-3~-------------|-3--X-3~----|-7--------|-7-----|
|-7---------|-7--------|-3--X-3~-------------|-3--X-3~----|-7--------|-7-----|
|-5---0-----|-5--------|-1--X-1~-1-1-3-1-0-0-|-1--X-1~-1/-|-5---0----|-5-----|
|--------1--|-----18\--|---------------------|------------|--------1-|----22\|

                                                  [- Fill 1 --]
|---------------------|-----------|---------------|-----------|--------------|
|---------------------|-----------|---------------|------5----|--------------|
|-3--X-3~-------------|-3--X-3~-3-|-5--3--5--3--5-|------5--7-|-7--5--7~-----|
|-3--X-3~-------------|-3--X-3~-3-|-5--3--5--3--5-|------5--7-|-7--5--7~-----|
|-1--X-1~-1-1-3-1-0-0-|-1--X-1~-1-|-3--3--3-----3-|-5h7--5--5-|-5--5--5~-----|
|---------------------|-----------|---------------|-----------|--------------|

[-- Fill 2 ----------]
|--------------------|-------------|------------|-------------|--------------|
|-----------X--------|-------------|------------|-------------|--------------|
|-----5h7p5-7^(9)-5~-|-5--X--5---5-|-----5--X-5-|-3--3--3-----|--------------|
|-----5h7p5----------|-5--X--5---5-|-----5--X-5-|-3--3--3-----|--------------|
|-5h7----------------|-3--X--3-0-3-|-0-1-3--X-3-|-1--1--1-1p0-|--------------|
|--------------------|-------------|------------|-------------|-17\----------|


Verse 2

Repeat VERSE 1, but replace FILL 1 with FILL 3 and FILL 2 with FILL 4:

[-- Fill 3 -------] [-- Fill 4 ------------------]
|-----------------| |----------------------------|
|-----------------| |-3h4p3--3-------------------|
|-----------------| |------5--5-3h5p3\2--2-------|
|---------------7-| |------------------5--5-3-2--|
|-5h7p5h7p5h7p5-5-| |--------------------------5-|
|-----------------| |----------------------------|


Solo

|----------10----------------10----------------10----------------10-------10--|
|--------10---13p10--------10---13p10--------10---13p10--------10---13p10-----|
|-12^(14)-----------12^(14)-----------12^(14)-----------12^(14)---------------|
|-----------------------------------------------------------------------------|
|-----------------------------------------------------------------------------|
|-----------------------------------------------------------------------------|

|-13p10----10-----------------------------------------------------------------|
|-------13----13-10-13p10-----------------------------------------------------|
|-------------------------12-10-12p10----10--------------10-10-12-------------|
|-------------------------------------12---12-10-12p10h12---------------------|
|-----------------------------------------------------------------------------|
|-----------------------------------------------------------------------------|

|--------------------------10-13p12-10-15p13p12-16p15p13-18p16p15/20-20p18p17-|
|------------13-13-13p10-13---------------------------------------------------|
|-12p10-12/14-----------------------------------------------------------------|
|-----------------------------------------------------------------------------|
|-----------------------------------------------------------------------------|
|-----------------------------------------------------------------------------|

|-20^(22)---20^(22)v(18)---20~-----20p17h18-20p17h18p17--|
|--------------------------------------------------------|
|--------------------------------------------------------|
|--------------------------------------------------------|
|--------------------------------------------------------|
|--------------------------------------------------------|

|-17h18p17--17------17h18p17--17-------------------------------------------|
|---------20--18-20---------20--20p17h18p17---17---------------------------|
|-------------------------------------------19--19p17---17-----------------|
|----------------------------------------------------20---20p19p17---17----|
|-----------------------------------------------------------------20-------|
|--------------------------------------------------------------------------|

|-------------------------20^(22)--|
|----------------------------------|
|---------------------X------------|
|----------17~--------X------------|
|-19~----------19~----X------------|
|----------------------------------|

|-20p17h20p17h18p17-18p17----17-------------------------|
|-------------------------20---20p17-18p17h18p17h18p17--|
|-------------------------------------------------------|
|-------------------------------------------------------|
|-------------------------------------------------------|
|-------------------------------------------------------|

|------------20----20~\--|
|-20^(22)----------20~\--|
|------------------------|
|------------------------|
|------------------------|
|------------------------|

|-13p10--10-----13p10--10-----13p10-10-10-----13p10-10-10-------|
|------13--13p10-----13--13p10-----------13-10-----------13p10--|
|---------------------------------------------------------------|
|---------------------------------------------------------------|
|---------------------------------------------------------------|
|---------------------------------------------------------------|

|-13p10--10-----13-10--10-----13p10--10-----13p10--10-------|
|------13--13p10-----13--13p10-----13--13p10-----13--13p10--|
|-----------------------------------------------------------|
|-----------------------------------------------------------|
|-----------------------------------------------------------|
|-----------------------------------------------------------|

|-13p10--10------------------------------------------5--|
|------13--13p10-11p10--10-----------------------5h6----|
|---------------------12--12p9-10-9\7-9-7\5-7p5---------|
|----------------------------------------------7--------|
|-------------------------------------------------------|
|-------------------------------------------------------|

|---------------8-----------|-------------------------------|
|-8^(9)^(10)~~~~~~~~~v(9)---|-6------------6p5--------------|
|---------------------------|---7~--7~--7p5---7-5-----------|
|---------------------------|---------------------8p7p5-----|
|---------------------------|---------------------------8---|
|---------------------------|-------------------------------|

|---------------------------|-------------------------------|--------|
|---------------------------|-------------------------------|--------|
|---------------------------|-------------------------------|--------|
|-5-----------5-------------|-------------------------------|--------|
|---8p7p5-7h8---8--7~--5~---|-4~---5~---7~---12h13p12h13p12-|-20/0---|
|---------------------------|-------------------------------|--------|


Verse 3

Repeat VERSE 2, but replace FILL 4 with FILL 5:

[-- Fill 5 ----------------------------------]
|----------10--------------------------------|
|-13^(15)~---13-11-10h12p10--10--------------|
|--------------------------13--13p10h13p10---|
|-----------------------------------------12-|
|--------------------------------------------|
|--------------------------------------------|

Interlude

|--1--------1p0-----|-----5--3----|-------------------|---------------|
|:-3----3-------3p1-|-----6--5--5-|-------------------|----8--6-------|
|--2--2---2---------|-3-----------|-5----5h7-9p7------|----------7----|
|--0----------------|-3-----------|-5--5---------10p8-|-7-----------7-|
|:------------------|-------------|-------------------|---------------|
|-------------------|-------------|-------------------|---------------|
                                            [--- 1 ---][--- 2 ---]
|-----------------|------------|------------|---------|-------0--|
|-3---------------|----6p5h6-5-|-2--3--5--6-|-5--3--2~|-5--3--2-:|
|-3---3h5-7-5-3-2-|-0--------0-|------------|---------|-------2--|
|-3-3-------------|------------|------------|---------|-------2--|
|-----------------|------------|------------|---------|-------0-:|
|-----------------|------------|------------|---------|----------|

|-17p13-------------------18p13----------------------------
|-------15-(repeat 4 X)--------15--(repeat 4x)-------------
|----------------------------------------------------------
|----------------------------------------------------------
|----------------------------------------------------------
|----------------------------------------------------------

|-15p12------------------17p13-----------------------------
|-------13-(repeat 4x)---------13-(repeat 4x)--------------
|----------------------------------------------------------
|----------------------------------------------------------
|----------------------------------------------------------
|----------------------------------------------------------

|----------------------------------------------------------
|-15h16p15h16-16/18\16/18-18---16---15---16----------------
|-15h17p15h17-17/19\17/19-19---17---15---17----------------
|----------------------------------------------------------
|----------------------------------------------------------
|----------------------------------------------------------

|-15---12---------12----9----10----12----13---12-----------
|-/-----/----11----/----/-----/-----/-----/----------------
|-/-----/-----/----/----/-----/-----/-----/----------------
|-/-----/-----/----/----/-----/-----/-----/----------------
|-------------/--------------------------------------------
|----------------------------------------------------------

|10h12p10h12p10h12-12~~~-9-10-9-10-9-10----------------------------------------
|--------------------------------------10-11-10-11-10-11-----------------------
|----------------------------------------------------9-10-9-10-9-10-6-7-6-7-6-7
|------------------------------------------------------------------------------
|------------------------------------------------------------------------------
|------------------------------------------------------------------------------

|---------9h10-12-10-12^~~~~~-----5h6p5--5-----------------------
|-----9h10-----------------------------8---8-6p5-6p5-7-5---------
|-9h10---------------------------------------------------8p7-5---
|--------------------------------------------------------------8-
|----------------------------------------------------------------
|----------------------------------------------------------------

|----------------------------------------------------------5-6-8-6-5---------
|----------------------------------------------------5-6-8-----------8-------
|-----------------------------------------2-3-5-3-5-7------------------------
|-5---------5-7p5-------------------2-3-5------------------------------------
|---8p7p5-8-------8-\----------1-3-5-----------------------------------------
|-------------------------1-3-5----------------------------------------------

|-5-------------5------------------------------------------
|---8-6p5-6p5-8---8-----6--5-----2-3-2-3-2-3/3-5-3-5-3-5/6-5-6-5-6/8-6-8-6-8/
|----------------------------------------------------------
|----------------------------------------------------------
|----------------------------------------------------------
|----------------------------------------------------------

-----------------------------------------------------------
/10-8-10-8-10/11-10-11-10-11-10-11/13-11-13-11-13-11-15^---
-----------------------------------------------------------
-----------------------------------------------------------
-----------------------------------------------------------
-----------------------------------------------------------

|-------------------------------------17-18-17--17-------------17---------20^
|-17h18----------17-18-17-18-------18---------20--20-18-17-18-20--20-18-17---
|-------19~~~~---------------19~~~~----------------------------------------
|---------------------------------------------------------------------------
|---------------------------------------------------------------------------
|---------------------------------------------------------------------------

|-18--17-20-18-17-20--18152018141916\15131814131613121512\11101411-9--
|---------------------------------------------------------------------
|---------------------------------------------------------------------
|---------------------------------------------------------------------
|---------------------------------------------------------------------
|---------------------------------------------------------------------

|-13-10\5h6p5---5------------------------------------------
|-------------8---8-6-5---5--------------------------------
|-----------------------7---7-5---5------------------------
|-------------------------------8---8-7-8-7---------5------
|-------------------------------------------7/8-7h8--------
|----------------------------------------------------------

|----------------------------------------------------------
|----------------------------------------------------------
|----------------------------------------------------------
|-7--5------------------------------------3----------------
|-------8--7---5--3--------3/5------5-3-5---5-3-5----------
|--------------------5-3-1---------------------------------

|----------------------------------------------------------
|-------------------------------------6p5------------------
|---------------------------------5h7----7p5-7~~~~---------
|-6-3-5-3----------------3--5-5/7--------------------------
|---------5-3---5--3--5------------------------------------
|----------------------------------------------------------

|-5h6p5---5------------------------
|-------8---8-6-5-6-5--------------
|---------------------7-5-7-5------
|-----------------------------8-7--
|----------------------------------
|----------------------------------

6.I DON'T KNOW

|-----------------------------------------------------
|-----------------------------------------------------
|-------2---------------4----------------5------------
|-------2---------------4----------------5------------
|-------0--0-000-000000-0--00000-0000000-0-000000000--
|-17\-------------------------------------------------

|-----3-------------------------||--------------------------------
|-----3---------3---------------||---1p0h1p0h1p0------------------
|-7\--0---------2---------------||--------------2p0h2p0-----------
|-7\--0---------0---------------||---------------------2p0h2p0----
|-------------------------------||----------------------------3-0-
|-----3--------------0---3^-----||--------------------------------

"Everyone goes through changes..."
|----------------3-------3---3------------------3------3---3-------
|-------------6----------3---3---------------6---------3---3-------
|----5-----5-------------0---0------5-----5------------0---0-------
|-3-----3----------------0---0---3-----3---------------0---0-------
|------------------------------------------------------------------
|-------------------5^---3---3---------------------5^--3---3-------
                                  "Dont ask me..."
|---------------------------------|--------------------------------
|---------6-6-----6-6-8-8-6-6-----|--------------------------------
|-----5-5-----5-5-------------5-0-|-10----9----7----5--------------
|-3-3-----------------------------|-10----9----7----5--5-----------
|---------------------------------|--8----7----5----3--5--back to first riff
|---------------------------------|--------------------3-----------
Fill:
|-this is tapping-----------------------------------------
|-12p5p0-12p5p0-12p5p0-12p5p0-12p4p0-12p4p0-12p2p0-12p2p0-
|---------------------------------------------------------
|---------------------------------------------------------
|---------------------------------------------------------
|---------------------------------------------------------

|------------------------------------------------------------------
|------------------------------------------------------------------
|-----7^-^-----0-----5----------7^-^-----0-----0---5---------------
|-----7--------0-----5--5-------7--------0-----0---5---------------
|-0-0--------0-------3--5---0-0--------0-----------3---------------
|-----------------------3-----------------------------5--3--2--01~~


Bridge:
harm.===============================||
|---------------|-------------12--|----------7---------------------|
|-7-------------|---------7-------|-12-------8--10----8------------|
|-7-------------|-5---------------|-12-------7---------------------|
|-7-------------|-----------------|-12-----------------------------|
|---------------|-----------------|--------------------------------|
|---------------|-----------------|--------------------------------|
|               |                 |                                |
|-2-------------|-----------------|--------------------------------|
|-3------3h5/7--|-8-------7-------|-8-----------------8------------|
|-2------2-/-7--|-9-------7----9--|-7--7-----------7---------------|
|-0-------------|-----------------|-5-----5-----5------------------|
|---------------|-----------------|--------------------------------|
|---------------|-----------------|-7-----------7------------------|

|------------------------------|----------------|------------------|
|-10---------------------------|-7-------7h8/10-|-5-----8----10----|
|---12p10-10-------------------|-7-------7h9/11-|-5----------------|
|-----------12p10-10-----------|----------------|-5----------------|
|-------------------12p10------|-9--------------|-------7----------|
|------------------------12\10-|----------------|------------------|
|                              |                |                  |
|------------------------------|----------------|------------------|
|------------------------------|----------------|-------------7----|
|---------5---7-------5--------|---------7h9p7--|-9----------------|
|------7-------------------7---|---------7------|-5----------------|
|-8----------------------------|-5--------------|------------------|
|------------------------------|----------------|------------------|

|---------7-----------|---------------------------------|----------
|-7----------10----8--|---------------------------------|----------
|-9-------------------|-14p12p10-10---------------------|----------
|---------------------|-10---------12p10-10h12p10-------|----------
|---------------------|---------------------------12\10-|---9------
|---------------------|---------------------------------|----------
|                     |                                 |
|------------------3--|---------------------------------|----------
|-3-------------3-----|-------------3----------1--------|----------
|-0-------------------|---------2-----------------2-----|----------
|---------------------|---------------------------------|--(0)-----
|-2-------------------|-----3---------------------------|----------
|---------------------|-1-------------------------------|----------


Solo:
|-----------------------15----------15-----------------------------
|-18^---18^~~~~~~~~~~~----18-15---15--18-15---15-------------------
|------------------------------17^----------18--18-15-17-15--------
|-----------------------------------------------------------17-15--
|------------------------------------------------------------------
|------------------------------------------------------------------

|------------17^----------^^---17p15-17p15h17p15h17p15\13~~~-------
|--------------------------------------------------------------13^-
|-17^---15---------------------------------------------------------
|------------------------------------------------------------------
|------------------------------------------------------------------
|------------------------------------------------------------------

hold bend on 13, bend up 1/2 step each bar while playing this:
|----------------------------------------------------------------------
|-16p13h16p13h16p13----------------------------------------------------
|----------------------------------------------------------------------
|---------------------%-----%-----%-----%------%-----12\0h3p0h3p0h3p0--
|---------------------------------------------------[bend behind nut]--
|----------------------------------------------------------------------

|--------------------------------------------------------------------------
|-----------------------------------------------------------------------18-
|-----------------------------------------------------15-15-17-17-19-19----
|-(0)----------------------------------------15-15--17---------------------
|----3/--/15^~~~~---15^~~~~~---13-13-15-15/17-----17-----------------------
|----------------------------15--------------------------------------------

|----------18-21p20p18~~~---------18----------------^--------------
|-18-20-20----------------20-18-20--20-18-20^---20^----^^----------
|---------------------------------------------------------x-19^----
|------------------------------------------------------------------
|------------------------------------------------------------------
|------------------------------------------------------------------

|------------------------------------------------------------------
|-------------------------11-10-----11-10-----10-9-----10-9--------
|-19^----19^~~~~~~--12-12------12-10-----12-10----11-9------11-9---
|------------------------------------------------------------------
|------------------------------------------------------------------
|------------------------------------------------------------------

|-------------------------------------3----------------------------
|-9-8-----8-7-----7-6-----6-5-------3---6p3--3---------------------
|-----10-8----9-7-----8-6-----7-5-5^-------6---6p5p3--5-3----------
|---------------------------------------------------5--------------
|------------------------------------------------------------------
|------------------------------------------------------------------

|-------15---------------------------------------------------------
|-----15--18-15---15---------17^^^~~~~~~---------------------------
|-5/17---------18----17-15-x---------------------------------------
|-----------------------------------------end solo-----------------
|------------------------------------------------------------------
|------------------------------------------------------------------
Thing at end:
|-20p17-20p17--17--------------------------------------------------
|------------20--20p17-20p17--17-----------------------------------
|---------------------------19--19p17-19p17--17--------------------
|------------------------------------------19--19p17---------------
|---------------------------------------------------19p17----------
|--------------------------------------------------------17\-------

7.ROAD TO NOWHERE

(let ring throughout)
--------2---------------------------3---------------------------------
----3-----3-----------2---------------3-------------------------0-----
------2-----2-----2-----2-------0-------0---------0---------------0---
--0-----------------2-----2-------0-----------0-------------2---------
---------------0--------------------------0-2---2-------------2-------
------------------------------3-----------------------3-2-0-----------


------------3--------------------------------------
--------3-----3------------2-------3-------2-------
----------0-----0------2-----2-------2-------2-----
------------------0------2-----2-2-----2-------2---
---------------------0-------------------0-------0-
--0-2-3--------------------------------------------
                     . . . . . . . . . . . . . . .

intro solo
        ^^     ^^                               ^^^^^
-----------------------P-------------------------------------------
---H--P-----B------22-19---B---B---------------------------B-------
-19-21-19--21(21)---------21--21(21)19-------H-19---19----21(21)19-
-----------------------------------------19-21---------21----------
-------------------------------------------------------------------
-------------------------------------------------------------------

    ^^^  ^^^  ^^^  ^^^                                            ^^^
----H----------------------------------------------------------------
19-20---19--------------B---22-B--22-B------------------H--P---B-----
-------------21---19---21-----21----21--------------19-21-19--21(21)-
--------------------------------------------H-19-21------------------
----------------------------------------19-21------------------------
---------------------------------------------------------------------

                                               ^^^  ^^^  ^^^ ^^^
--B----------P--12-----------------------------H------------------
-20(20)--20-19------B---22-B---22-B--------19-20---19-------------
-------------------21-----21-----21(21)19---------------21---19---
------------------------------------------------------------------
------------------------------------------------------------------
------------------------------------------------------------------

     tr^^^^^^^^^^^^^^^^^^^^^^^^^^^^^^^^^^^^^^^^^^^^^^^
-------------------------------------------------------
-(14-15)14\-----(12-14)12\-----(10-12)10\-----(8-10)8--
-(12-14)12\-----(11-12)11\-----(-9-11)-9\-----(7--9)7--
-------------------------------------------------------
-------------------------------------------------------
-------------------------------------------------------

   ^^^^^^   ^^^^^^  ^^^^^^  ^^^^  ^^^^^^^^^^^^^^^^^^^^^^^^
------------------------------||--------------------------
--\7-------\5------\3------\2-||--3-----------------------
--\6-------\4------\2------\0-.|--------------------------
------------------------------.|--4-----------------------
------------------------------||--------------------------
------------------------------||--------------------------
                 (return to start)   (fill)


------------------------B10-B10-B10-B10(10)\--------------
------------------------9---9---9---9--(-9)\--------------
-------------------------------------------------5-----5--
-------------------------------------------------5-----5--
----------------------------------------------3-----3--3--
----------------------------------------------------------
                                              .     .
searching for the key.                             the wreckage of

                                   P.H.^^^^
---------------------------------------------------------
-------------------3-------------------------------------
-------------------2--5--4---------------------5-----5---
-------------------0--5--4--2------3(.5)-------5-----5---
-------------------0--3--2--0-----------5---3-----3--3---
-3-0-2-3--5-0-2-3--------------3-0-----------------------
 . . . .  . . . .              . .          .     .
of my past keeps       me                      it just


-----------------------0---------------------------------------------
--------------------3--3---3---------------------------------3-------
--------------------2--2---2-----5-----5---------------------2--5--4-
--------------------0--0---0-----5-----5---------------------0--5--4-
-------------------------------3----3--3---------------------0--2--2-
--3-0-2-3--5-0-2-3-------------------------3-0-2-3--5-0-2-3----------
  . . . .  . . . .             .    .      . . . .  . . . .
leave me alone                         I still find it all   mystery


-------------3----------------------------------
------3------3-------------------------------3--
------0---2--0-------------------------------2--
--2---0---2--0--------------5-5-5-4--4-4-2-2-0--
--0-------0-------------------------------------
------3------3---------------------------------- (next solo)
   be a  dream?  the road to nowhere

8.FLYING HIGH AGAIN

|--------------|------------------|----------x--|------------------|
|--------------|----------3---3---|----------3--|------------------|
|-0h2----2-2---|-----2----2---0---|----------2--|--1-1--h5-5p0-----|
|-0h2-x--2-2---|-----2----0---0---|----------0--|--0-0--h5-5p0-----|
|-0h0-0--0-0---|---x-0----0-------|----2--3-----|--x-x-------------|
|--------------|---x----------3---|-------------|------------------|

|--------------|----------------|------------x--|------------------|
|--------------|-------------3--|----------3-x--|-1p0-1p0----------|
|-2--------2px-|----2--------0--|----------2-x--|--------2p0-------|
|-2--------2px-|----2--------0--|----------0-x--|-----------2p0----|repeat for different
|-0--------0---|----0-----------|----2--3-------|--------------3^--|variations
|--------3-----|-------0--2--3--|---------------|------------------|

"mamas gonna worry..."
|-----------------|-----------------|-------------|-----------------|
|-----------------|-----------------|--8----10^---|-----------------|
|-2-------2-------|-x-------2---2---|--7-----7----|-5---------------|
|-2-------2-x-x-x-|-x-x-x-x-2---2---|--5----(7)---|-5---5-----------|
|-0---0-0-0-0-0-0-|-0-0-0-0-0-0-0-0-|-------------|-------7-6-5-3h5-|
|-----------------|-----------------|-------------|-----------------|
"If you could see inside of me..."
|-------------|---------------------|----------------0--0-|--------|
|-------------|---------------------|-3-----3-3-----------|-3-3----|
|---2-----4-6-|-(6)~~~-4-2-----4--x-|-2-----2-2-----------|-2-2----|
|---4-----6-7-|-(7)----6-4-----6--x-|-0-----------0-------|-0-0----|
|-0-----------|---------------------|---------------------|--------|
|-------------|---------------------|---------------------|--------|
"You'd see youd see what i had seen..."
|-0-4-----|-5~~~~~~--x-x-7--9--|-(9)~~-7--5-----7--5-|---------------------------
|-0-5-----|-7--------x-x-9-10--|(10)---9--7-----9--7-|---------------------------
|---------|--------------------|---------------------|---harmonics---------------
|---------|--------------------|---------------------|---------------------------
|---------|--------------------|---------------------|-7-7-7-7-7-7-7-7-7-7-7-7-7-
|---------|--------------------|---------------------|---------------------------


SOLO:
|14---------14--------14--------14---------|17-16-14-------------------------|
|--17p14------17p14-----17p14-----17p14----|--------17-15p14-----------------|
|-------16^--------16^-------16^-------16^-|----------------17-16p14---------|
|------------------------------------------|------------------------16-14----|
|------------------------------------------|-----------------------------16--|
|------------------------------------------|---------------------------------|

|----------------------------------------------------14h15-|
|----------------------------------------------15h17-------|
|-----------------------------------14p12-14/16------------|
|---------------------14-16-14-16h17-----------------------|
|-15p14-15h16-17p16-17-------------------------------------|
|----------------------------------------------------------|

|-14~~~~~~~~-h15p14----------------------|
|------------------17~~~~~~(x)\----------|
|------------------------------\---------|
|-------------------------------\--------|
|--------------------------------\-------|
|---------------------------------\12-12-|

|---------------------------------------|-------------------------x------------|
|---------------------------------------|151415141514145141514----x-----10h14-x|
|------------------------14h16p14h16p14-|---------------------16~~-------------|
|---------------14--16-14---------------|--------------------------------------|
|------12--16-14--16--------------------|--------------------------------------|
|-14-12--14-----------------------------|--------------------------------------|

|-101410------101510------101410------10/17-|171917191719171917-17\/9h12p9h12---|
|-------101410------101410------101410------|-----------------------------------|
|-------------------------------------------|-----------------------------------|
|-------------------------------------------|-----------------------------------|
|-------------------------------------------|-----------------------------------|
|-------------------------------------------|-----------------------------------|
   T     T       T             T    T       T
|-17p12-1712912-1712912912912-1712-1712912-1712912-|
|--------------------------------------------------|
|--------------------------------------------------|
|--------------------------------------------------|
|--------------------------------------------------|
|--------------------------------------------------|
   T    T        T    T        T        T
|-----------------------------------------------|
|-1813-18131013-1813-18131013-18131013-18131013-|
|-----------------------------------------------|
|-----------------------------------------------|
|-----------------------------------------------|
|-----------------------------------------------|
   T    T        T    T        T        T
|-----------------------------------------------|
|-----------------------------------------------|
|-1914-19141114-1914-19141114-19141114-191411-x-|
|-----------------------------------------------|
|-----------------------------------------------|
|-----------------------------------------------|
   T     T        T     T        T
|---------------------------------------xh4h7p4-|
|-----------------------------------------------|
|-----------------------------------------------|
|-20p15-20151215-20p15-20151215-20p15-\---------|
|-----------------------------------------------|
|-----------------------------------------------|
   T    T     T  T     T   T     T   T     T    T     T     T    T     T
|-12p7-12747-127-xp47-127-12747-127-1247-|-----------------------------------|
|----------------------------------------|13p8-13858-138585-138-13858-13858x-|
|----------------------------------------|-----------------------------------|
|----------------------------------------|-----------------------------------|
|----------------------------------------|-----------------------------------|
|----------------------------------------|-----------------------------------|
   T    T        T   T        T       T
|-----------------------------------------------|
|-----------------------------------------------|
|-14p9-14p9p6h9-14p9-xp9p6h9-1496969-14p9p6h9p6-|
|-----------------------------------------------|
|-----------------------------------------------|
|-----------------------------------------------|

|-----------------------------------------------|
|-----------------------------------------------|
|-----------------------------------------------|
|-15p10-15p10p7h10-15p10-15p10p7h10-15p10p7-----|
|-------------------------------------------8-\-|
|-----------------------------------------------|end solo
                    "Flying high again...."
|-------------------|-----------------|---------------------|
|-------------------|-----------------|---------------------|
|-2--2----2--5^---7-|~~~-5h7--0---5\4-|-2-2-2---2---5---7---|
|-2--2----2--5^---7-|----5----0---5\4-|-2-2-2---2---5---7---|
|-0-------0---------|-----------------|-0-0-----0-------5---|
|----3h4^-----------|-----------------|-----3h4-------------|


This is at the end:
|----------------|-15/17--17\15------
|----------------|-15/17--17\15------
|-2------2--5-7--|-12/14--14\12------
|-2------2--5-7--|-12/14--14\12------
|-0------0-------|-------------------
|----3-4---------|-------------------

9.GUITAR SOLO

Don't Know

10.SUICIDE SOLUTION

|------------|-------------------------------|-----------------------------|
|------------|-------------------------------|-----------------------------|
|------------|-2--------5\----0--2-----------|-5\---0--2-------------------|
|------------|-2--------5\----0--2-----------|-5\---0--2-------------------|
|------------|-0--0--0--------------0--0-----|-0---------------------------|
|--x---17\---|----x--x--------------x--x-----|----------------3bf----------|


|-------------------------------|------------------------------------------|
|-------------------------------|------------------------------------------|
|-2--------5\----0--2-----------|-5\---0--2------5w/bar--------------------|
|-2--------5\----0--2-----------|-5\---0--2--------------------------------|
|-0--0--0--------------0--0-----|-0----------------------------------------|
|----x--x--------------x--x-----|------------------------------------------|

Wine is fine, but whiskey's..........


Verse
|---------------------------------|-----------------------------------------|
|---------------------------------|-----------------------------------------|
|-2---------5\-----0---2----------|-5\----0----2----------------------------|
|-2---------5\-----0---2----------|-5\----0----2------------2p0-------------|
|-0--0--0-------------------0--0--|-0----------------0-----------3----------|
|----x--x-------------------------|-----------------------------------------|


Suicide is slow with ......

|--------------------------------|----------------------|-------------------|
|--------------------------------|----------------------|-------------------|
|-2--------5\----0--2------------|-5\---0--2------------|-2-------5\--0-2---|
|-2--------5\----0--2------------|-5\---0--2--5-2p1p0---|-2-------5\--0-2---|
|-0--0--0----------------0---0---|--------------------3-|-0--0--0--------0-0|
|--------------------------------|----------------------|-------------------|


your sorrows          then it flood......
|--------------------|---------------------------|-------------------------|
|--------------------|---------------------------|-------------------------|
|-5\----0--2---------|-2--------5\---0--2--------|-9--7--5--0--------------|
|-5\----0--2---------|-2--------5\---0--2--------|-9--7--5--0--------------|
|--------------------|-0--0--0-------------0--0--|-7--5--3-----------------|
|--------------3bf~--|---------------------------|----------3--------------|


                               away tomorrow

|--------------------|------------------------|----------------------------|
|--------------------|------------------------|----------------------------|
|-------5-----5--7~--|--0----------2----5*----|-----------5--------5--7~---|
|-------5-----5--7~--|--0----------2----------|-----------5--------5--7~---|
|-0--0-----0---------|-------------0----------|-0---0--0-----0--0----------|
|--------------------|------3bf---------------|----------------------------|


                        Evil thoughts and evil....

|----------------------|--------------------------|------------------------|
|----------------------|--------------------------|------------------------|
|-0--------2-----------|-2--------5\--0--2--------|-5\---0--2--------------|
|-0--------2-----------|-2--------5\--0--2--------|-5\---0--2-----2p0------|
|----------0-----------|-0--0--0------------0--0--|------------0--------3--|
|-----3bf---------17\--|--------------------------|------------------------|


cold, alone you hand in .....

|---------------------------|-------------------------|---------------------|
|---------------------------|-------------------------|---------------------|
|-2--------5\---0--2--------|-5\--0--2----------------|-2--------5\--0--2---|
|-2--------5\---0--2--------|-5\--0--2--5-2p1p0h1p0---|-2--------5\--0--2---|
|-0--0--0-------------0--0--|-----------------------3-|-0--0--0----------0-0|
|---------------------------|-------------------------|---------------------|


the reaper               you can't escape ............

|-------------------------|------------------------|-----------------------|
|-----------10--13\10/13--|------------------------|-----------------------|
|-5\---0--2--9--12\-9/12--|-------5\---0--2--------|-9--7--5----0----------|
|-5\---0--2--7--10\-7/10--|-------5\---0--2--------|-9--7--5----0----------|
|-------------------------|-0--0-------------0--0--|-7--5--3---------14\---|
|-------------------------|------------------------|------------3----------|


'Cause you feel life's unreal .........

|-------------------------|------------|-----------------------------------|
|-------------------------|------------|-----------------------------------|
|-------4--------6--------|-7----6-----|---------4--------6----------------|
|-------4--------6--------|-7----6-----|---------4--------6----------------|
|-0--2-----0--2-----0--2--|------------|---0--2-----0--2------0--2---------|
|-------------------------|------------|-----------------------------------|


blame, and you're wondering why.  Then you .......
|-------------------------|------------------------|-----------------------|
|-------------------------|------------------------|-----------------------|
|-7----7--6----4--2-------|-----4--------6---------|--7------6-------------|
|-7----7--6----4--2-------|-----4--------6---------|--7------6-------------|
|--------------------0----|--2-----0--2-----0--2---|-----------------------|
|-------------------------|------------------------|-----------------------|


What you sow can .......

|-------------------------|-----------------------|------------------------|
|-------------------------|-----------------------|------------------------|
|-------4--------6--------|-7---------9-----------|----5----5----7~--------|
|-------4--------6--------|-7---------9-----------|----5----5----7~--------|
|-0--2-----0--2-----0--2--|-----4/5---7-----------|-0----------------------|
|-------------------------|---------------0~w/bar-|------------------------|


              Hell on this ...

|------------------|--------------------------|----------------------------|
|------------------|--------------------------|----------------------------|
|--0-------2---5*--|-----------5--------5--7~-|--0--------2----------------|
|--0-------2-------|-----------5--------5--7~-|--0--------2----------------|
|----------0-------|-0---0--0-----0--0--------|-----------0----------------|
|-----3bf----------|--------------------------|-----3bf----------17\-------|


Now you live inside .........

|---------------------------|---------------------|-------------------------|
|---------------------------|---------------------|-------------------------|
|-2--------5\---0--2--------|-5\---0--2-----------|---------5\----0--2------|
|-2--------5\---0--2--------|-5\---0--2-----1p0---|---------5\----0--2------|
|-0--0--0-------------0--0--|------------0------3-|-0--0-0-------------0--0-|
|---------------------------|---------------------|-------------------------|


full throttle.  It's ........

|-------------------|-----------------------------|------------------------|
|-------------------|-----------------------------|------------------------|
|-5\---0--2--0dive--|--2--------5\---0--2---------|-5\--0--2---------------|
|-5\---0--2---------|--2--------5\---0--2---------|-5\--0--2---------------|
|-------------------|--0--0--0--------------0--0--|------------3/12\-------|
|-------------------|-----------------------------|------------------------|


The reaper's you and ........

|---------------------------|--------------------|-------------------------|
|---------------------------|--------------------|-------------------------|
|-2--------5\---0--2--------|-9--7--5---0--------|-------4--------6--------|
|-2--------5\---0--2--------|-9--7--5---0--------|-------4--------6--------|
|-0--0--0-------------0--0--|-7--5--3------------|-0--2-----0--2-----0--2--|
|---------------------------|-----------3--------|-------------------------|


doors, but there's no one at ..........
|-----------------|-------------------------|------------------------------|
|-----------------|-------------------------|------------------------------|
|--7------6-------|-------4--------6--------|-7----7--6----4--2------------|
|--7------6-------|-------4--------6--------|-7----7--6----4--2------------|
|-----------------|-0--2-----0--2-----0--2--|----------------------0-------|
|-----------------|-------------------------|------------------------------|


Where to hide?  Suicide ............

|-------------------------|-----------------|-------------------------|
|-------------------------|-----------------|-------------------------|
|-------4--------6--------|-7----7--6----4--|-------4--------6--------|
|-------4--------6--------|-7----7--6----4--|-------4--------6--------|
|-0--2-----0--2-----0--2--|-----------------|-0--2-----0--2-----0--2--|
|-------------------------|-----------------|-------------------------|


realy about?

|------------------------|------------|----------|-----------|-------------|
|------------------------|------------|----------|-----------|-------------|
|--7--------9------------|--2---------|----------|-----------|-------------|
|--7--------9------------|--2---------|----------|-----------|-----x-------|
|-----4/5---7------------|--0---------|----------|-----------|-----x-------|
|---------------0~w/bar--|------------|----------|-----------|-------------|
                           sustain-------------------------------- pick scrape


|------------|-----------|---------|-----------|----------|----------------|
|------------|-----------|---------|-----------|----------|----------------|
|--5---------|---4-------|--0------|---2-------|--5-------|-7--------0-----|
|--5---------|---4-------|--0------|---2-------|--5-------|-7--------0-----|
|------------|-----------|---------|---0-------|----------|----------------|
|------------|-----------|---------|-----------|----------|----------------|
volume swells


|----------------|--------------------|---------------|--------------------|
|----------------|--------------------|---------------|--------------------|
|--2-------------|----------2----4----|---5-----------|--4-----------------|
|--2-------------|----------2----4----|---5-----------|--4-----------------|
|--0-------------|--------------------|---------------|--------------------|
|----------------|--------------------|---------------|--------------------|


|-------------|--------------------|----------------|----------------------|
|-------------|--------------------|----------------|----------------------|
|--0----------|---2--------2--4----|--5-------------|--7------0------------|
|--0----------|---2--------2--4----|--5-------------|--7------0------------|
|-------------|---0----------------|----------------|----------------------|
|-------------|--------------------|----------------|----------------------|


|-------------------------------|-------------------------

Almost there ...

Sign in to get your own page with links to favourite songs and more. You are just one click away...

Login with Facebook Login with Google