Log in

One click and you are in

Login with Facebook Login with Google

Why sign up and log in

Guitar Tabs Explorer
Ozzy Osbourne tabs for Killer of giants

Guitar tabs

Killer Of Giants

				Ozzy Osbourne

	First part played with delay. Play so that the delay notes keep time with the actual notes
                      (let ring...)
-------------------------0-----|
---------5-------------0-------|
-------4---4---------5---------| (X 2)
-----2-------2-----5-----------|
---2-----------2-3-------------|
-0-----------------------------|

Delay off for the next part:

-------------------------0-------------------------------0-------    ___
---------5-------------0---0-------------5-------------3---3-----     |
-------4---4---------5-------5---------4---4---------3-------3---     |
-----2-------2-----5-----------5-----2-------2-----3-----------3-     |
---2-----------2-3-----------------2-----------2-1---------------     |
-0-------------------------------0-------------------------------     |
                                                                      |
                                                                    (X 2)
-------------------------0---------------0---------------0-------     |
---------5-------------0---0---------------0---------------0-----     |
-------4---4---------5-------5---------4-----4---------2-----2---     |
-----2-------2-----5-----------5-----5---------5-----3---------3-     |
---2-----------2-3-----------------5---------------3-------------     |
-0-------------------------------3---------------1---------------    ~~~


---------3---------------3---------------3-------6-----5-----3---
-------3---3-----------3---3-----------3---3-------3-----3-----3-
-----5-------5-------5-------5-------3-------3-------3-----3-----  (X 2)
---5-----------5---5-----------5---3-----------3-----------------
-3---------------3---------------3-------------------------------
-----------------------------------------------------------------

-5-------5---------------5---------------5-------8-----7-----5---
-------5---5-----------5---5-----------5---5-------5-----5-----5-
-----7-------7-------7-------7-------5-------5-------5-----5-----
---7-----------7---7-----------7---5-----------5-----------------
-5---------------5---------------5-------------------------------
-----------------------------------------------------------------

                                                {strum chord from bottom to
---------5---------------5---------------5-------8----  top and let ring...}
-------5---5-----------5---5-----------5---5-----5----
-----7-------7-------7-------7-------7-------7---5----
---7-----------7---7-----------7---7-----------7-5----
-5---------------5---------------5---------------5----
------------------------------------------------------


{--4x--}{--4x--}
-0-------0-------     0---------------0---------------0-------------------0----
---0-------0----- <   --0-----------0---0-----------0---0---------------0---0--
-----6-------5---(X 2)----2-------2-------2-------2-------2-----------2-------2
-------6-------5- <   ------2---2-----------2---2-----------2-------2----------
-----------------     --------0---------------0---------------2-2-2------------
-----------------     ---------------------------------------------------------



If
none of us            believes.................
-----------------------------------------4-----------------------
---------2------7-------5---------5--------5-----5-4-----4-5-----
-----------2------4-------6---6------6-------6-------4-------6---
------4------4------4-------7----------6-------6-------4-------6-
----4-----------------------------4--------------4-6-----6-4-----
-2--------------4-------5----------------------------------------


can you tell me what .........
-------------------------------------------------------------------
----------9-------10-----12-10-9-----7-----7-9-----9-7-----7-9-----
--------9---9---9----9-----------9-----7-------9-------7-------9---
------9-------9--------9-----------9-----7-------9-------7-------9-
-5/7---------------------------------0-------7-------0-------7-----
-------------------------------------------------------------------

Listen to me..............
-------------------------------------------------------------
-2-----2-0-------5-------3-----3-2-----2--------5------3-----
---0-------0---0---0---0---0-------4------4---4---2------4---
-----0-------0-------0-------0-------4------4-------4------4-
---------------------------------2--------------2------2-----
-3---------------3-------------------------------------------


---------------------------------------------------------------
-2-----2-0-------5-------3-----------2---2-----------2---2-----
---0-------0---0---0---0---0---0-------4---4---4-------4---4---
-----0-------0-------0-------0-----4---------4-----4---------4-
---------------------------------2-----------------------------
-3---------------3---------------------------------------------

---------------------------------------------------------------
-2-----2-0-------5-------3-----------2---2-----------2---2-----
---0-------0---0---0---0---0---0-------4---4---4-------4---4---
-----0-------0-------0-------0-----4---------4-----4---------4-
---------------------------------2-----------------------------
-3---------------3---------------------------------------------


-------------------------------------------------0---------------
-2-----2-0-------5-------3-------2-----2-0---------0-----3-------
---0-------0---0---0---0---0---0---2-------2---2-----2-----2---2-
-----0-------0-------0-------0-------2-------2---------2-----2---
---------------------------------0-------------------------------
-3---------------3-----------------------------------------------

                                              {strum from bottom to top
-----------------------------------------------2-  and let chord ring}
-2-----2-0-------5-------3-----------2---2-----2-
---0-------0---0---0---0---0---0-------4---4---4-
-----0-------0-------0-------0-----4---------4-4-
---------------------------------2-------------2-
-3---------------3-------------------------------


oh yeah here's the end thing he does:
---------0-5/7-
-----0h1-------
---------------
---2-----------
-0-------------
---------------

Almost there ...

Sign in to get your own page with links to favourite songs and more. You are just one click away...

Login with Facebook Login with Google