GuitarTabsExplorer icon
GuitarTabsExplorer icon

Log in

Songbook

  • Log in to add and see bookmarks

Last visited songs

  • No songs visited yet...
Just Say Ozzy Album by Ozzy Osbourne

Just Say Ozzy Album tab by Ozzy Osbourne

Tabs

Album- Just Say Ozzy

1.MIRACLE MAN

Chord diagramEb MajorEb tuning

Play (Riff) (4X)          (b)up 1/2 step
 (intro)
|------------5--------------------5---------------|
|------------5--------------------5---------------|
|---------------4---2--1------------4(b)--2-------|
|---------------4---2--2------------4(b)--2-------|
|-------------------------------------------------|
|----2-2-2-2--------------2-2-2-2-----------------|
Riff2 Play 4X            (hold) "looking for a Mir-acle
Man
                         (first 2 verses)
|--------------------------------|----------|-----------------------------|
|--------------------------------|----------|-----------------------------|
|--------------------------------|----------|-----------------------------|
|--------------------------------|------(4)-|-----------------------------|
|----4--4----------4--2----------|------(2)-|--4-4------------------------|
|----O--2--2-2-2-2-O--O--2-2-2-2-|--2-2-----|--O-2-2-2-2-2-2-2--2--2--2--2|

 "that tells me no lies"
         {pinch harmonic}  I   don`t know....from|
|--------------------------------||------7(b)-7--5-----------|
|--------------------------------||------7(b)-7--5-7---------|
|---4------------------------{9}-||----------------7---------|
|---2--4-4-----------------------||---6--------------9-- 11--|
|------2-2-----4--4--------------||---4--------------7----9--|
|----------X-X-O--2-O-2-O-2------||-----------------------9--|

I don`t know where...been!
|----7(b)-7-5----------------|
|----7(b)-7-5--7-------------|
|--------------7-------------|
|--6---------------9------11-|
|--4---------------7-------9-|

Not our Jimmy sinner...                  he`s so
obscene
     (6th verse) [let ring]              {pinch
harm.}
|-------------------------------------------------------------------------|
|-------------------------------------------------------------------------|
|-------------------------------------------------------------------------|
|--6--9--9--8--6--4--6--[6]-----------------------------------------------|
|--4--7--7--6--4--2--4--[4]--5-5-5-5-5-4-4-4-4-4-3-3-3-3-3-2-2-2-2-2------|
|--------------------------------------------------------------------{3~}-|

  Miracle Man Your busted/ Miracle Man.....

|------------5----------------------------------|
|------------5----------------------------------|
|----------------4--2--1-------------4--2--1----|
|----------------4--2--2-------------4--2--2----|
|-----------------------------------------------|
|--2-2-2-2------------------2-2-2-2-------------|
solo:
eb|-----9--14--------9--14-------9--14-------9--14--|
Chord diagramBb majorBb|-12-----------12----------12----------12---------|
Chord diagramGbGb|-------------------------------------------------|
Chord diagramDbDb|-------------------------------------------------|
Chord diagramAbAb|-------------------------------------------------|
Chord diagramEb MajorEb|-------------------------------------------------|

eb|------12--16-------12--16-------12--16------12--16---|
Chord diagramBb majorBb|--14-----------14-----------14-----------14----------|
Chord diagramGbGb|-----------------------------------------------------|
Chord diagramDbDb|-----------------------------------------------------|
Chord diagramAbAb|-----------------------------------------------------|
Chord diagramEb MajorEb|-----------------------------------------------------|

eb|------14--17-------14--17-------14--17-------14--17--------|
Chord diagramBb majorBb|--15-----------15-----------15-----------15----------------|
Chord diagramGbGb|-----------------------------------------------------------|
Chord diagramDbDb|-----------------------------------------------------------|
Chord diagramAbAb|-----------------------------------------------------------|
Chord diagramEb MajorEb|-----------------------------------------------------------|

Ending 1:
eb|--19--14----------17--14-----------19--14----------17--14-----------------|
Chord diagramBb majorBb|----------17--14----------17--14-----------17--14----------17--14---------|
Chord diagramGbGb|---------------------------------------------------------------------16^~~|
Chord diagramDbDb|--------------------------------------------------------------------------|
Chord diagramAbAb|--------------------------------------------------------------------------|
Chord diagramEb MajorEb|--------------------------------------------------------------------------|
note: This is extremely hard and extremely fast.

Ending 2:
eb|---------------------------------------------------------------|
Chord diagramBb majorBb|---17~-------17~-----------------------------------------------|
Chord diagramGbGb|-------16~--------14~------------------------------------------|
Chord diagramDbDb|---------------------------------------------------------------|
Chord diagramAbAb|---------------------------------------------------------------|
Chord diagramEb MajorEb|---------------------------------------------------------------|
  Vibrato the hell out of these notes

("rock bends") Its hard to show the rhythm for the bend, but listen
to the CD and figure it.
eb|---------------------------------------------------------------|
Chord diagramBb majorBb|--2------------------------------------------------------------|
Chord diagramGbGb|--4^--4-4-4-4-4-----7^-slide-/21-------------------------------|
Chord diagramDbDb|---------------------------------------------------------------|
Chord diagramAbAb|---------------------------------------------------------------|
Chord diagramEb MajorEb|---------------------------------------------------------------|
With your picking hand, take your index finger and do a finger tap
on the 7 while you bend the 2/4 bend 1/2 step. After that, slide
your finger up to the 21st fret and bend the 2/4 bend 1 whole step.


   1/2             1/2
eb|---------------------------------------------------------------|
Chord diagramBb majorBb|---------------------------------------------------------------|
Chord diagramGbGb|--11^--11--9--11--9-----------11^--11--9--11--9----------------|
Chord diagramDbDb|---------------------11--9-----------------------11--9---------|
Chord diagramAbAb|---------------------------------------------------------------|
Chord diagramEb MajorEb|---------------------------------------------------------------|

       (rock bend, half step)
eb|----------------9----------------------------------------------|
Chord diagramBb majorBb|--7/-8--7/-8----12^--------------------------------------------|
Chord diagramGbGb|--8/-9--8/-9---------------------------------------------------|
Chord diagramDbDb|--7/-8--7/-8---------------------------------------------------|
Chord diagramAbAb|---------------------------------------------------------------|
Chord diagramEb MajorEb|---------------------------------------------------------------|


Rock bends...............   Vibrato the hell out of these notes!
eb|---------------------------------------------------------------|
Chord diagramBb majorBb|--2--4--5--7--9---10--12---------------------------------------|
Chord diagramGbGb|--4--6--7--9--11--12--14-----21~~~~21~~~~21~~~~~21~~~~~~-------|
Chord diagramDbDb|---------------------------------------------------------------|
Chord diagramAbAb|---------------------------------------------------------------|
Chord diagramEb MajorEb|---------------------------------------------------------------|

2.BLOODBATH IN PARADISE

Tune down 1/2 step: Chord diagramEb MajorEb Chord diagramAbAb Chord diagramDbDb Chord diagramGbGb Chord diagramBb majorBb Chord diagramEb MajorEb

              use pedal wah
    slide  with hammer on and pull off
Chord diagramE MajorE ----------------------------------------------------------------------|
Chord diagramBB ----------------------------------------------------------------------|
Chord diagramG+G -------/14--po-ho-po-ho-po-ho-po-----------5-4--------repeat-3x-------|
Chord diagramD MajorD --2-2------14-13-14-13-14-13-14-13--5-5-/7----7-6~--------------------|
Chord diagramA augmentedA --0-0-------------------------------3-3-------------------------------|
Chord diagramE MajorE ----------------------------------------------------------------------|

Chord diagramE MajorE ----------------------------------------------------------------------|
Chord diagramBB ----------------------------------------------------------------------|
Chord diagramG+G -------/14--po-ho-po-ho-po-ho-po----/13-------------------------------|
Chord diagramD MajorD --2-2------14-13-14-13-14-13-14-13------13-12~~~----------------------|
Chord diagramA augmentedA --0-0-----------------------------------------------------------------|
Chord diagramE MajorE ----------------------------------------------------------------------|
                bend and release
Chord diagramE MajorE --------------------------------------------------------------------- }
Chord diagramBB ------------------ho--ho--------------------------------------------- }
Chord diagramG+G --2-----4----5----4-5-4-5--2-----7^-7-5---0-1-------repeat-3x-------- }
Chord diagramD MajorD --2-----4----5----4-5-4-5--2-----7^-7-5---0-1------------------------ }
Chord diagramA augmentedA ----000---00---00------------000------------------------------------- }
Chord diagramE MajorE ----------------------------------------x---------------------------- } 2x
              harmonic             end     }
Chord diagramE MajorE ---------------------------------------------------------/------------ }
Chord diagramBB -------------------------------------------------ho--ho--/---12-12-12- }
Chord diagramG+G --7-7-7-7-7-7--5-5-5-5-5-5-------2-----4----5----4-5-4-5-/---12-12-12- }
Chord diagramD MajorD --7-7-7-7-7-7--5-5-5-5-5-5-------2-----4----5----4-5-4-5-/------------ }
Chord diagramA augmentedA --5-5-5-5-5-5--3-3-3-3-3-3---------000---00---00---------/------------ }
Chord diagramE MajorE ----------------------------3~---------------------------/-00--------- }
  Prechorus
Chord diagramE MajorE -----------------------------------------------------------------------|
Chord diagramBB --po------po------po--------po------po------po-------------------------|
Chord diagramG+G --5-4-----7-5-----5-4---7~--5-4-----7-5-----5-4------------------------|
Chord diagramD MajorD --5-4-7-7-7-5-7-7-5-4-7-7~--5-4-7-7-7-5-7-7-5-4-7-5~-------------------|
Chord diagramA augmentedA ------7-7-----7-7-----7---------7-7-----7-7-----7-5~-------------------|
Chord diagramE MajorE -----------------------------------------------------------------------|
                   0.5
Chord diagramE MajorE -----------------------------------------------------------------------|
Chord diagramBB --po------po------po---------------------------------------------------|
Chord diagramG+G --5-4-----7-5-----5-4---7~--5------------------------------------------|
Chord diagramD MajorD --5-4-7-7-7-5-7-7-5-4-7-7~--5------------------------------------------|
Chord diagramA augmentedA ------7-7-----7-7-----7------------------------------------------------|
Chord diagramE MajorE ------------------------------000000--3^-------------------------------|
  Chorus                  harmonic
Chord diagramE MajorE ----------------------------------3----3-----3~------------------------|
Chord diagramBB ------------------------------------3----3-----------------------------|
Chord diagramG+G -------5~-----7~-----5~-----7~--------0----0---------------------------|
Chord diagramD MajorD -------5~-----7~-----5~-----7~-----------------------------------------|
Chord diagramA augmentedA --0000---0000---0000---0000-----3---------------5-3-2-3-2--------------|
Chord diagramE MajorE ----------------------------------------------------------5-3----------|
                       harmonic
Chord diagramE MajorE -----------------------------------------------------------------------|
Chord diagramBB -----------------------------------------------------------------------|
Chord diagramG+G -------5~----7~-----5~-----7~-5---------7^-5-7^------------------------|
Chord diagramD MajorD -------5~----7~-----5~-----7~-5---------7^-5-7^------------------------|
Chord diagramA augmentedA --0000---0000--0000--0000----------------------------------------------|
Chord diagramE MajorE ---------------------------------000000--------------------------------|


 On solo
Chord diagramE MajorE -----------------------------------------------------------------------|
Chord diagramBB -----------------------------------------------------------------------|
Chord diagramG+G -----------------------------------------------------------------------|
Chord diagramD MajorD ------------------------------5-7--------------------------------------|
Chord diagramA augmentedA --------5^5-3~------5^5~------3-5-7------------------------------------|
Chord diagramE MajorE --5-3-5-------5-3-5-----5-3-5-----5-5-5-5-5-5-5------------------------|

Chord diagramE MajorE -----------------------------------------------------------------------|
Chord diagramBB -----------------------------------------------------------------------|
Chord diagramG+G -----------------------------------------------------------------------|
Chord diagramD MajorD ------------------------------7-9--------------------------------------|
Chord diagramA augmentedA --------7^7-5~------7^7~------5-7-9------------------------------------|
Chord diagramE MajorE --7-5-7-------7-5-7-----7-5-7-----7-7-7-7-7-7-7------------------------|
   Solo                       H   H  H  H
Chord diagramE MajorE ------------------------------------------------------------------------|
Chord diagramBB --5-5---8-8---10-10--------5-5--8--8---10-10----------9~----9~--8~---9~-|
Chord diagramG+G --7^7^~10^10^~12^12^~--\17-7^7^~10^10^~12^12^~-/7-----------------------|
Chord diagramD MajorD -----------------------\17---------------------/7-9999-9999-9999-9999---|
Chord diagramA augmentedA ------------------------------------------------------------------------|
Chord diagramE MajorE ------------------------------------------------------------------------|

Chord diagramE MajorE ------------------------------7-----7-----7-----7------15^15-15-14-13--|
Chord diagramBB --12--14--15--17--19------12^---12^---12^---12^---12^------------------|
Chord diagramG+G --14^-16^-17^-19^-21^-16~----------------------------------------------|
Chord diagramD MajorD -----------------------------------------------------------------------|
Chord diagramA augmentedA -----------------------------------------------------------------------|
Chord diagramE MajorE -----------------------------------------------------------------------|
  1.5 T   T   T   T   T   T   T   1.5
Chord diagramE MajorE -----------po----po-----po-----po-----po-----po-----po-----------------|
Chord diagramBB --15^~-10-5-3-10-5-3-10-5-3-10-5-3-10-5-3-10-5-3-12-5-3-17^~-----------|
Chord diagramG+G -----------------------------------------------------------------------|
Chord diagramD MajorD -------------------------------------------------------------/16-------|
Chord diagramA augmentedA -----------------------------------------------------------------------|
Chord diagramE MajorE -----------------------------------------------------------------------|

3.SHOT IN THE DARK

Intro 2 times
with Distortion
e[-----------18-18b20-18~~~~--18-20-18--22b-------------|
B[------18----------------------------------------------|
G[-15---------------------------------------------------|
D[------------------------------------------------------|
A[------------------------------------------------------|
E[------------------------------------------------------|

Intro part 2, 2 times
e[------------------------------------------------------|
B[------------------------------------------------------|
G[--------6-----5---6-5---------------------------------|
D[-xx-----6-----5---6-5---------------------------------|
A[-xx-----4-xxx-3---4-3---------------------------------|
E[----0-0---------------(4)-----------------------------|
  PM...

Verse
Clean
e[------------------------------------------------------|
B[-------1------1---------------------------------------|
G[-----3------3---3--------------3-------3--------------|
D[---3--------------3---3------4-------4---4------------|
A[-1--------1---------1------4-------4-------4----------|
E[-------------------------2-------2--------------------|

e[-------1------1-----------------------------------------|
B[------------1----------------4-------4------------------|
G[-----3----3-----3---------------------------------------|
D[---3--------------3--------4-------4---4----------------|
A[-1------1-----------1----4-------4-------4--------------|
E[-----------------------2-------2------------------------|

Pre-Chorus
Distortion
e[------------------------------------------------------|
B[------------------------------------------------------|
G[-5-----6-8----5-----6-8---6-5----6-5------------------|
D[-5-----6-8----5-----6-8---6-5----6-5------------------|
A[-3-----4-6----3-----4-6---4-3----4-3------------------|
E[------------------------------------------------------|

e[------------------------------------------------------|
B[------------------------------------------------------|
G[-5-----6-8----5-----6-8-------------------------------|
D[-5-----6-8----5-----6-8------3------------------------|
A[-3-----4-6----3-----4-6------3------------------------|
E[-----------------------------1------------------------|

Chorus
Distortion
e[------------------------------------------------------|
B[------------------------------------------------------|
G[-3-----------------6---5------------------------------|
D[-3-----------------6---5--6-(4)-----------------------|
A[-1-----------------4---3--6-(4)-----------------------|
E[--------------------------4-(2)-----------------------|

Intro Part 2

Verse

Chorus

Interlude
e[------------------------------------------------------|
B[------------------------------------------------------|
G[-6---13r11--6-10b11r10~~~-4---13r11--6-10b11r10~~~----|
D[-6------------------------4---------------------------|
A[-4------------------------2---------------------------|
E[------------------------------------------------------|

GUITAR SOLO
e[------------------------------------------------------|
B[-11p9-11~~~~-9b11-9-----------------------------------|
G[-------------------10p8---10p8---10p8----10~~~~~------|
D[-----------------------8p6----8p6----8p6--------------|
A[------------------------------------------------------|
E[------------------------------------------------------|

e[------------------------------------------------------|
B[------------------------------------------------------|
G[-10-8------------8------------------------------------|
D[------8-6----6-8---6br--------------------------------|
A[------------------------11p8-11p8----11-13-14---------|
E[------------------------------------------------------|

e[------------------------------------------------------|
B[-11----------13------14------16------18~~~~~----------|
G[------------------------------------------------------|
D[------------------------------------------------------|
A[------------------------------------------------------|
E[------------------------------------------------------|
 TR..............................

4.TATTOOED DANCER

Tune down 1/2 step: Chord diagramEb MajorEb Chord diagramAbAb Chord diagramDbDb Chord diagramGbGb Chord diagramBb majorBb Chord diagramEb MajorEb

Main Riff:
|-----/---|-------------------------------------------------------|
|----/----|-------------------------------------------------------|
|---/-----|-------------------------------------------------------|
|--/------|------------------8ph/7--------------------------------|
|-/scrape-|-7-7--87667--5-7--6ph/5--7-7--87665-5-7-7--0656--------|
|/--------|-5-5---------3-5---------5-5--------3-5-5--------------|

Secondary Riff:

|----------------------------------------|
|----------------------------------------|
|--7-9-10--7-9-10--7-9-10--7-9-10-------.|
|----------------------------------5-5--.|
|----------------------------------3-3---|
|----------------------------------------|

Bridge:         X4-----------------------|
|-------------------/--|-------------------------|
|------------------/---|-----5-----7-----8-7-----|
|-----------------/----|-----5-----7-----8-7-----|
|--7-10-9-12-12--/-----|-----5-----7-----8-7-----|
|--5-8--7-10-10-/scrape|-7-7---7-7---7-7---------|
|----------------------|-5-5---5-5---5-5---------|

Interlude:
|--------------------------------------------------|
|--------------------------------------------------|
|-------------------------------------------------.|
|-------------------5-3--5ph-3-5-3-5-3--7--3------.|
|-5ph--3-5-3-5-3-5--3-1--3ph-1-3-1-3-1--5--1--5----|
|-3ph--1-3-1-3-1-3----------------------------3----|

|--------------------------------------------------|
|--------------------------------------------------|
|-5ph---5---5--8--7/8\7/8\7/8\7--------------------|
|-3ph-0-3-0-3--6--5/6\5/6\5/6\5--5-3-5-3-5-3-5-3---|
|--------------------------------3-1-3-1-3-1-5-1-5-|
|------------------------------------------------3-|

|--------------------------------------------------------------------|
|--------------------------------------------------------------------|
|--------------------------------------------------------------------|
|--------------------------------------------------------------------|
|-2-3----------------------------------------------------------------|
|-0-1-1-111-111-111-111-111-111-111-111-111-111-111-111 etc etc etc--|

5.SWEET LEAF

Don't Know

6.WAR PIGS

[ Privacy | About us ]

Welcome to the guitar community

Why join and log in?
- Get songbook with favourite songs
- Get custom made front page
- Submit chords and tabs
- Submit guitar-cover videos
- Get a lot of thumbs up for your work

Songbook

Last visited songs

Site
Home
Search
Community
Submit chords

Video

No video for this page. Check out how you can submit guitar-cover videos here

Search tabs and chords

Browse by artist

A B C D E F G H I J K L M N O P Q R S T U V W X Y Z #


Menu

Search

Video

Bookmark

Login