Log in

One click and you are in

Login with Facebook Login with Google

Why sign up and log in

Guitar Tabs Explorer
Ozzy Osbourne tabs for I dont want to change the world (Ver. 2)

I Don't Want To Change The World tab by Ozzy Osbourne (Ver. 2)

Ozzy Osbourne tabs for I dont want to change the world (Ver. 2)

Guitar tabs with lyrics

Here's my transcription of "I Don't Want to Change the World" by Ozzy Osbourne.

 Written by: Ozzy Osbourne, Zakk Wylde, Randy Castillo, Lemmy Kelmister

 As appears on Ozzy Osbourne's "No More Tears"

 A chord diagramD#D# tuning

 🏷Legend: / = Slide up
          = Slide down
         ^ = hammer on / pull off
         ( ) = bend
         ph = pinch harmonic
	 pm = palm muting

 MAIN RIFF:
A chord diagramD#D# |-----------------------------------|---------------------------|
A chord diagramA#A# |-----------------------------------|---------------------------|
A chord diagramF#F# |---2--------2--------------5--5/7--|---2--------2-----2--------|
A chord diagramC#C# |---2--------2--------------5--5/7--|---2--------2-----2--------|
A chord diagramG#G# |---0--x--x--0--x--x--x--x--3--3/5--|---0--x--x--0--x--0--------|
A chord diagramD#D# |-----------------------------------|---------------------------|

 |----------------------------------|-------------------------------------------|
 |----------------------------------|-------------------------------------------|
 |---2--------2--------------5-/-7--|---2--------2--------5(7)ph-------5(7)ph---|
 |---2--------2--------------5-/-7--|---2--------2------------------------------|
 |---0--x--x--0--x--x--x--x--3-/-5--|---0--x--x--0--x--x------------------------|
 |----------------------------------|-------------------------------------------|

 The whole song primarely goes along those lines... When he comes to the refrain, it
 switches to:

 									 pm.......
 |---------------|-------|----------------|-----------------------------------------|
 |---------------|-------|----------------|------------------12(14)--12-------------|
 |--2------------|---0---|---0---------0--|--2---------2-----------------11--9--11--|
 |--2--------2---|---0---|---0---------0--|--2---------2----------------------------|
 |--0--------2---|-------|----------------|--0---------0----------------------------|
 |---------------|---3---|---3---------3--|-----------------------------------------|
   I don't want to change...

 |-------------------------|---------------------------------------------------------|
 |---------------------3---|---3---------3----3--------------------------------------|
 |--2------------------0---|---0---------0----0---12(14)ph-----12(14)ph-----12(14)ph-|
 |--2-----------2------0---|---0---------0----0--------------------------------------|
 |--0-----------2----------|--------------------------------0------------0-----------|
 |---------------------3---|---3---------3----3--------------------------------------|

 Then, right before the solo:

 |------------------------------------------------------------------|
 |------------------------------------------------------------------|
 |------------------------------------------------------4-----2-----|
 |--2---4---4---4-4-4-4---2---4---4-4---2---4---4-4-2---4-----2-----|
 |--2---4---4---4-4-4-4---2---4---4-4---2---4---4-4-2---2-----0-----|
 |--0---2---2---2-2-2-2---0---2---2-2---0---2---2-2-0---------------|

 I haven't got around to the solo, yet.  Besides, it's always better to stay along the
 lines of the original version, but express yourself by incorporating some original
 material in the solo (taping, etc).

Other versions of I Don't Want To Change The World

I don't want to change the worldTabs

Almost there ...

Sign in to get your own page with links to favourite songs and more. You are just one click away...

Login with Facebook Login with Google