GuitarTabsExplorer icon
GuitarTabsExplorer icon

Log in

Songbook

  • Log in to add and see bookmarks

Last visited songs

  • No songs visited yet...
Eat Me by Ozzy Osbourne

Bass tabs

INTRO

G |------|------------------------------------|-----------------------------------|
D |------|------------------------------------|-----------------------------------|
A |------|------9h10-9-0-8-0-7-0-2h0-2h0------|------9h10-9-0-8-0-7-0-2h0-2h0-3~--|
D |-14\0-|-0-12~-------------------------3~-3-|-0-12~-----------------------------|

G ||------------------------------------|-----------------------------------|
D ||------------------------------------|-----------------------------------|
A ||------9h10-9-0-8-0-7-0-2h0-2h0------|------9h10-9-0-8-0-7-0-2h0-2h0-3~--|
D ||-0-12~-------------------------3~-3-|-0-12~-----------------------------|

G |------------------------------------|-----------------------------------|
D |------------------------------------|-----------------------------------|
A |------9h10-9-0-8-0-7-0-2h0-2h0------|------9h10-9-0-8-0-7-0-2h0-2h0-7~--|
D |-0-12~-------------------------3~-3-|-0-12~-----------------------------|

VERSE I

G |----------------------------|----------------------------|----------------------------|--------------------------|
D |----------------------------|----------------------------|----------------------------|--------------------------|
A |-2-3-4---2-3-4---2-3-4---7~-|-2-3-4---2-3-4---2-3-4---7~-|-2-3-4---2-3-4---2-3-4---7~-|-2-3-4---2-3-4---2-3-4----|
D |----------------------------|----------------------------|----------------------------|-----------------------3~-|

CHORUS I

G |------|------------------------------------|-----------------------------------|
D |------|------------------------------------|-----------------------------------|
A |------|------9h10-9-0-8-0-7-0-2h0-2h0------|------9h10-9-0-8-0-7-0-2h0-2h0-3~--|
D |-14\0-|-0-12~-------------------------3~-3-|-0-12~-----------------------------|

G |------------------------------------|-----------------------------------|
D |------------------------------------|-----------------------------------|
A |------9h10-9-0-8-0-7-0-2h0-2h0------|------9h10-9-0-8-0-7-0-2h0-2h0-7~--|
D |-0-12~-------------------------3~-3-|-0-12~-----------------------------|

VERSE II

G |---------------------------|-----------------------------|----------------------------|
D |---------------------------|-----------------------------|----------------------------|
A |-2-3-4---2-3-4---2-3-4-----|-2-3-4---2-3-4---2-3-4---7~--|-2-3-4---2-3-4---2-3-4------|
D |------------------------3~-|-----------------------------|------000---------------3~--|

G |----------------------------|----------------------------|
D |----------------------------|----------------------------|
A |-2-3-4---2-3-4---2-3-4--7~--|-2-3-4---2-3-4---2-3-4------|
D |----------------------------|------------------------3~--|

CHORUS II

G |------|------------------------------------|------------------------------------|
D |------|------------------------------------|------------------------------------|
A |------|------9h10-9-0-8-0-7-0-2h0-2h0------|------9h10-9-0-8-0-7-0-2h0-2h0-3~-3-|
D |-14\0-|-0-12~-------------------------3~-3-|-0-12~------------------------------|

G |------------------------------------|------------------------------------|
D |------------------------------------|------------------------------------|
A |------9h10-9-0-8-0-7-0-2h0-2h0------|------9h10-9-0-8-0-7-0-2h0-2h0-7-7~-|
D |-0-12~-------------------------3~-3-|-0-12~------------------------------|

BRIDGE

G |------------------------|-----------------|--------------------|-------------------|
D |------------------------|-------2~--------|--------------------|-------------------|
A |----------2~--1~--------|----2~-----------|------2~--1~--------|---2~--1~--2~--3~--|
D |-0~-0-0-----------3-0~--|-0~--------3-0~--|-0~-----------3-0~--|-0~----------------|

CHORUS III/OUTRO

G |--------|------------------------------------|---------------------------------------|
D |--------|------------------------------------|---------------------------------------|
A |--------|------9h10-9-0-8-0-7-0-2h0-2h0------|------9h10-9-0-8-0-7-0-2h0-2h0-3/14\3--|
D |-0/14\0-|-0-12~-------------------------3~-3-|-0-12~---------------------------------|

G |------------------------------------|-------------------------------------|------------------------------------|
D |------------------------------------|-------------------------------------|------------------------------------|
A |------9h10-9-0-8-0-7-0-2h0-2h0------|------9h10-9-0-8-0-7-0-2h0-2h0-3-3~--|------9h10-9-0-8-0-7-0-2h0-2h0------|
D |-0-12~-------------------------3~-3-|-0-12~-------------------------------|-0-12~-------------------------3~-3-|

G |--------------------------------------|------------------------------------|-------------------------------------|
D |--------------------------------------|------------------------------------|-------------------------------------|
A |------9h10-9-0-8-0-7-0-2h0-2h0--------|------9h10-9-0-8-0-7-0-2h0-2h0------|------9h10-9-0-8-0-7-0-2h0-2h0-3-3~--|
D |-0-12~-------------------------3/14\3-|-0-12~-------------------------3~-3-|-0-12~-------------------------------|

G |------------------------------------|------------------------------------|-----------------------------------|
D |------------------------------------|------------------------------------|-----------------------------------|
A |------9h10-9-0-8-0-7-0-2h0-2h0------|------9h10-9-0-8-0-7-0-2h0-2h0--7~--|------9h10-9-0-8-0-7-0-2h0-2h0-----|
D |-0-12~-------------------------3~-3-|-0-12~------------------------------|-0-12~-------------------------3~--|

G |------------------------------------|----------------------------||
D |------------------------------------|----------------------------||
A |------9h10-9-0-8-0-7-0-2h0-2h0--7~--|-2-3-4---2-3-4---2-3-4------||
D |-0-12~------------------------------|------------------------3~--||

[ Privacy | About us ]

Welcome to the guitar community

Why join and log in?
- Get songbook with favourite songs
- Get custom made front page
- Submit chords and tabs
- Submit guitar-cover videos
- Get a lot of thumbs up for your work

Songbook

Last visited songs

Site
Home
Search
Community
Submit chords

Video

No video for this page. Check out how you can submit guitar-cover videos here

Search tabs and chords

Browse by artist

A B C D E F G H I J K L M N O P Q R S T U V W X Y Z #


Menu

Search

Video

Bookmark

Login