Log in

One click and you are in

Login with Facebook Login with Google

Why sign up and log in

Guitar Tabs Explorer
Ozzy Osbourne guitar tabs for Crazy train

Guitar tabs with lyrics

Crazy Train:  Randy Rhoades Tribute/ Ozzy Osbourne
Original Transcription by Wolf Marshal
Condensation of original by C. Brown

^ = Pull-off or Hammer-on
 = Slide (Down)

e--------------------|----------------------|
b--------------------|----------------------|
g--11---11---11-----|--2-------------------|  Repeat 4X
D--11---11---11-----|--2--------2--2-------|
A--9----9-----9-----|--0--------2--2-------|
E--------------------|-----4--2--0--0--4^0--|

Then,  a bunch of bending at 12 and 11 fret over:

[A chord diagramF#5F#5                 |   A chord diagramD5D5       A chord diagramE5E5        ]
[A chord diagramF#5F#5                 |   A chord diagramA5A5       A chord diagramE5E5        ]
[A chord diagramF#5F#5                 |   A chord diagramD5D5       A chord diagramE5E5        ]


Main Riff:

e------------------|------------------|
b------------------|------------------|
g------------------|------------------|  Repeat 4 X
D------------------|------------------|
A------4---5---4---|-2-------2--------|
E--2-2---2---2---2-|---5-4-5---5-4-0--|


Chords Shown over TAB

(A chord diagramF# minorF#m)               (A chord diagramD MajorD)       (A chord diagramE MajorE)

e------------------|(2)--------0-----|
b------------------|-3---------0-----|
g------------------|-2---------1-----|
D------------------|-0---------2-----|
A------4---5---4-2-|-----------2-----|
E--2-2---2---2-----|-----------0-----|

      (A chord diagramA augmentedA)   (E/A)     (A chord diagramD/AD/A)  (A chord diagramA augmentedA)

e------------7-----|-------------------|
b------4-----5-----|--3-------2--------|
g------5-----4-----|--2-------2------2-|
D------7-----6-----|--4-------2------2-|
A--0-0---0-9---0-0-|----------0--2^4---|
E------------------|----2-4------------|


       (A chord diagramA augmentedA)     (E/A)   (A chord diagramD/AD/A) (A chord diagramA augmentedA)

e---------------------|----------------------------|
b-------2-------5-----|-3-----2--------------------|
g-------2-------4-----|-2-----2--4^2^0-------------|
D-------2-------6-----|-4-----2--------4^2^0-------|
A--0-0----0-0-0---0-0-|-------0--------------4^2^0-|
E---------------------|---2-4----------------------|


(¨Crazy...¨)

      (A chord diagramA augmentedA)   (E/A)   (A chord diagramD/AD/A)   (A chord diagramA augmentedA)

e------------7-----|-5--------------|
b------5-----5-----|-3-------2------|
g------6-----4-----|-2--2----2------|
D------7-----6-----|-4--2----2------|
A--0-0---0-0---0-0-|----2^4--0---0--|
E------------------|----------------|


e-------------7-----|---------------|
b-------2-----5-----|-5------2------|
g-------2-----4-----|-3------2--6^^-|
D-------2-----6-----|-2------2------|
A--0-0----0-0---0-0-|-4--0-0-0----2-|
E-------------------|---------------|


Etc.


(¨Metal Wounds, not..........

                    [harmonics]
e---------------|------------5-|
b---------------|----------5---|
g-------------7-|-7------5-----|
D--4---4------7-|-7----5-------|
A--4---4------5-|-5--5---------|
E--2-0-2--2-0---|--------------|


(¨I’m going off the rails.............

  (A chord diagramA augmentedA)      (A chord diagramE5E5)
e--------------|----------|
b------------5-|-5--------|
g--2---------4-|-4--------|
D--2---------2-|-2--------|
A--0-----------|----------|
E--------4-2-0-|-0--------|

(...train¨

(A chord diagramF# minorF#m)

e------2-----------------------|-----------------------------|
b----2--5^2-3^2---2------------|-----------------------------|
g--4^-----------5---5^2-4^2----|-----------------------------|
D---------------------------4^2|-4^2-------------------------|
A------------------------------|-----4^3^2^3^2---2^3^2^3^2---|
E------------------------------|---------------5-----------5-|


--
Carl Brown
Chemical Industry Institute of Toxicology
Research Triangle Park, NC


CORRECTIONS/ALTERNATE PLAYING:

To my ear, the intro sounds more like:

   1   2   3   4    1   2   3   4
e|-----------------|----------------|
A chord diagramBB|0----------------|---------------0|
A chord diagramG+G|-----------------|----------------|
A chord diagramD MajorD|0----------------|---------------0|
A chord diagramA augmentedA|-----4---5---4---|2-0---0-2-0-----|
A chord diagramE MajorE|-2-2---2---2---2-|----4-------4-0-|


Also, the main riff after the intro, in my humble opinion,
stays on the ¨A¨ chord.  To my ear, just the inside note
moves:


   1   2   3   4    1   2   3   4
e|-----------------|----------------|
A chord diagramBB|0----5-----5-----|5-----5--------0|
A chord diagramG+G|-----6-----4-----|7-----6---------|
A chord diagramD MajorD|0----7-----7-----|7-----7--------0|
A chord diagramA augmentedA|-0000--0000--0000|--0000----------|
A chord diagramE MajorE|-----------------|----------------|
                          let ring...

Crazy Train tab

Ozzy Osbourne guitar tabs for Crazy train Ozzy Osbourne wrote "Crazy train" together with his bassist Bob Daisley and guitarist Randy Rhoads in 1980. It was released on his solo debut the same year and has since been considered to be his signature song. With the killer guitar opening it is always a hit at concerts.

The first opening riff in the song starts of in F-sharp minor and Randy Rhoads' guitar solo are one of the best metal solos ever done. "Crazy Train" was a major hit in both the UK and the USA when released on single in 1980. A new live version, again with Randy on guitar, was released on seven inch vinyl seven years later. Rhoads was a fantastic player, so with these Ozzy Osbourne Crazy train guitar tabs you get the chance to nail down the song in his style.

Other versions of Crazy Train

Crazy trainChords
Crazy train (Ver. 2)Chords
Crazy train (Ver. 2)Tabs
Crazy train (Ver. 3)Tabs
Crazy train (Ver. 4)Tabs
Crazy train (easy version) - introTabs
Crazy train - introTabs
Crazy train liveTabs
Crazy train live introTabs
Crazy train live version - introTabs

Almost there ...

Sign in to get your own page with links to favourite songs and more. You are just one click away...

Login with Facebook Login with Google