Log in

One click and you are in

Login with Facebook Login with Google

Why sign up and log in

Guitar Tabs Explorer
Ozzy Osbourne tabs for Crazy train live version

Crazy Train Live Version tab by Ozzy Osbourne

Ozzy Osbourne tabs for Crazy train live version

Intro

Crazy Train. Words and Music by Ozzy Osbourne, Randy Rhoads and Bob Daisley


Intro:
Medium Rock = 136

E:---------------------------------|------------------------------------|---------------------------|------------0--------0--|
B:---------------------------------|------------------------------------|---------------------------|-----3----------3----5--|
G:------11----11----(11)---Slide---|-----2------------------------------|---11-----11------Slide----|---- 2---------------4--|
D:------11----11----(11)----Up-----|-----2-----------2---2--------------|---11-----11-------Up------|-----0---------------2--|
A:-------9-----9-----(9)-----------|-----0-----------2---2--------------|----9------9---------------|------------------------|
E:---------------------------------|----------4--2---0---0------4p0-----|---------------------------|------------------------|

E:------------------------|------------------------ |-----------------------|---------0-------------------------|---|--12----|
B:------------------------|------------------------ |-----------------------|---3--------3----5-------12b(1/2)--|---|-(12b)--|
G:----11---(11)-----------|-----2-------------------|----11-----Slide-------|---2-------------4-----------------|---|--------|
D:----11---(11)---Slide---|-----2------------2------|----11-------Up--------|---0-------------2-----------------|---|--------|
A:-----9----(9)-----------|-----0------------2--- --|-----9------Again------|-----------------------------------|---|--------|
E:------------------------|-----------4--2---0--4-0-|-----------------------|-----------------------------------|---|--------|

E:-----------------------------------------------------------------------------|-------------------------------------|-------|
B:-----------------------------------------------------------------------------|-------------------------------------|-------|
G:----11b(1 1/2)--11b(1 1/2)---11b(1 1/2)---11b(1 1/2)------11b(1 1/2 to 2)----|---4b(full bend)(flick pickup switch)|---(4)-|
D:-----------------------------------------------------------------------------|-------------------------------------|-------|
A:-----------------------------------------------------------------------------|-------------------------------------|-------|
E:-----------------------------------------------------------------------------|-------------------------------------|-------|

E:------------------------------|--------------|---------------------------|--------------------------------|------------------------|
B:------------------------------|--------------|---------------------------|--------------------------------|------------------------|
G:------------------------------|--------------|---------------------------|--------------------------------|------------------------|
D:------------------------------|--------------|---------------------------|--------------------------------|------------------------|
A:--0(bend guitar neck 1/2)-----|---x pick-----|--------4------5------4----|---2---------------2------------|-------4------5----4----|
E:------------------------------|---x-- slides-|-2--2-----2------2-------2-|-------5---4---5-------5--4--0--|-2-2------2-----2-----2-|

E:----------------------------------|-----------------------------------------------|-------------0--|----------------------
B:----------------------------------|-----------------------------------------------|-----3-------0--|------------5------------
G:----------------------------------|-----------------------------------------------|-----2-------1--|------------6-----------
D:----------------------------------|-----------------------------------------------|-----0-------2--|------------7------------    And so on
A:--2--------------2----------------|------------4-------5-------4--------4-----2---|-------------2--|----0---0-------0---0---------
E:-------5--4--5--------5---4---0---|-----2--2------2-------2--------2--------------|-------------0--|-------------------------


b( ) = bend to note

This is the intro that you hear Randy Rhoads, Zakk Wylde and others play live. Sometimes they add their own bits but this is
the original one. P.S. I'm not responsible for broken necks LOL

Almost there ...

Sign in to get your own page with links to favourite songs and more. You are just one click away...

Login with Facebook Login with Google