Log in

One click and you are in

Login with Facebook Login with Google

Why sign up and log in

Guitar Tabs Explorer
Ozzy Osbourne tabs for Crazy train

Intro

I noticed that there is not any right notes to the intro of Crazy train
by Ozzy Osbourne so i tabbed them for you. Enjoy. Remember to listen to
the song for the rythmn.


Mute after marked(.) notes
   .              .      .         .          .
|--------------------------------------------------------------------|
|--------------------------------------------------------------------|
|--------------------------------------------------------------------|
|-------------------------------7-7----------------------------------|
|-4-4------7-7--1-1----4-4------5-5---1-1--4-4-----------------------|
|-2-2------5-5--0-0----2-2------------0-0--2-2-----------------------|
                               (-repeat this 3time-)

|--------------------------------------------------------------------|
|--------------------------------------------------------------------|
|--------------------------------------------------------------------|
|--------------------------------------------------------------------|
|-----4---5---4------2-0---0-2---------------------------------------|
|-2-2---2---2---2--------4-----4-2-0---------------------------------|

	  Play this 3 Times

Other versions of Crazy Train

Crazy trainChords
Crazy train (Ver. 2)Chords
Crazy trainTabs
Crazy train (Ver. 2)Tabs
Crazy train (Ver. 3)Tabs
Crazy train (easy version) - introTabs
Crazy train liveTabs
Crazy train live introTabs
Crazy train live version - introTabs
Crazy train1Tabs

Almost there ...

Sign in to get your own page with links to favourite songs and more. You are just one click away...

Login with Facebook Login with Google