Log in

One click and you are in

Login with Facebook Login with Google

Why sign up and log in

Guitar Tabs Explorer
Ozzy Osbourne tabs for Bark at the moon

Guitar tabs

"Bark At The Moon" by Ozzy Osbourne
done by TOAST...
                                   toast@intellinet.com

It sucks, but it'll get you started...

-------------------------------------------------------------------------------
---8/10-------------10-------------10--------------10-------------10-----10----
*--7/9---------------9--------------9--------------9--------------9-------9----
*--5/7---------------7--------------7--------------7--------------7-------7----
---------X-X-X-X--------X-X-X-X--------X-X-X-X---------X-X-X-X-------X-X-------
-------------------------------------------------------------------------------

-------------------------------------------------------------------------------
---6/8---------------8--------------8------------6---6---6---------------------
---5/7---------------7--------------7------------5---4---5------*--------------
---3/5---------------5--------------5------------3---3---3------*--------------
-------X-X-X-X----------X-X-X-X--------X--X------------------------------------
-------------------------------------------------------------------------------


-------------------------------------------------------------------------------
-------------------------------------------------------------------------------
--------------------2---------5-h-7----4----4-----7-7-5-4------7\5-------------
--------------------2---------5-h-7----5----5-------------5----7\5-------------
-1-0-1-3-1-0--------0--X-X---------------X----X----------------5\3-------------
-------------3-1---------------------------------------------------------------
-------------------------------------------------------------------------------


-------------------------------------------------------------------------------
---12-h-13-p-12-----12-h-13-p-12-----13-p-12-----15-p-12--15-p-12--------------
*---------------14---------------14----------14-------------------14-----------
*------------------------------------------------------------------------------
-------------------------------------------------------------------------------
-------------------------------------------------------------------------------


------------------------------------------ ------------------------------------
--15-p-12--15-p-12-----15-p-12------------ ------------------------------------
-------------------14----------14------*-- ------------------------------------
---------------------------------------*-- ------------------------------------
------------------------------------------ ------------------------------------
------------------------------------------ ------------------------------------

Other versions of Bark At The Moon

Bark at The Moon (Ver. 2)Tabs
Bark at The Moon AlbumTabs
Bark at The Moon1Tabs

Almost there ...

Sign in to get your own page with links to favourite songs and more. You are just one click away...

Login with Facebook Login with Google