Log in

One click and you are in

Login with Facebook Login with Google

Why sign up and log in

Guitar Tabs Explorer
Joan Osborne bass tabs for One of us

Bass tabs

Song Title: One Of Us(Corrected Version)
----------------------------------------------

Joan Osborne - "One of Us" - Bass Tab
Intro:
|---|---|-----------|-----------|-----------|
|---|-8-|-----------|-----------|-----------|
|-R-|-R-|-----4-5---|-----------|-----4-5---|
|---|---|-2---------|-5---5-0---|-2---------|
 1  4  1 2 & 3 4  1 2 & 3 4  1 2 & 3 4

|---------------|-------------|---------------|-----------|
|---------------|-------------|---------------|-----------|
|---------------|-------------|---------------|-----4-5---|
|-5---5-0-0-0-0-|-2---4-5---5-|-5---5-0-0-0-0-|-2---------|
 1 2 & 3 & 4 &  1 2 & 3 4 &  1 2 & 3 & 4 &  1 2 & 3 4

|-----------|
|-----------|
|-----------|
|-5---5-0---|
 1 2 & 3 4


Verse 1:
|-------------|-----------|-----------|-----------|-----------|
|-------------|-----------|-----------|-------2-2-|-----------|
|-----4-5---5-|-----------|-----4-5---|-----------|-----4-5---|
|-2-----------|-5---5-0---|-2---------|-5---5-----|-2---------|
 1 2 & 3 4 &  1 2 & 3 4  1 2 & 3 4  1 2 & 3 4  1 2 & 3 4

|---------------|-----------|---------------|
|-------2-2-2-2-|-----------|-------2-2-2-2-|
|---------------|-----4-5---|---------------|
|-5---5---------|-2---------|-5---5---------|
 1 2 & 3 & 4 &  1 2 & 3 4  1 2 & 3 & 4 &

Pre-Chorus:
|-----------|---------------|-----------|---------------|
|-----------|---------------|-----------|---------------|
|-5---5-5---|-7---7-7-7-7-7-|-5--5-5----|-7---7-7-7-7-7-|
|-----------|---------------|-----------|---------------|
 1 2 & 3 4  1 2 & 3 & 4 &  1 2 & 3 4  1 2 & 3 & 4 &

|-----------|---------------|
|-----------|---------6-9---|
|-7---7-7---|-7---7-7-----8-|
|-----------|---------------|
 1 2 & 3 4  1 2 & 3 & 4 &


Chorus:
				(x2)
|-----------|----------------|-----------|-----------|-----------|
|*----------|---------------*|-----------|-----------|-----------|
|*-----4-5--|-------7-7-7-7-*|-----4-5---|-------7-7-|-----4-5---|
|-2---------|-5---5----------|-2---------|-5---5-----|-2---------|
 1 2 & 3 4  1 2 & 3 & 4 &  1 2 & 3 4  1 2 & 3 4  1 2 & 3 4

|---------------|
|---------------|
|-------7-7-7-7-|
|-5---5---------|
 1 2 & 3 & 4 &




VERSE 2:
		     (x2)				  (x2)
|------------|------------|------------|----------------|
|*-----------|-----------*|*-----------|---------------*|
|*-----4-5---|-------7-7-*|*-----4-5---|-------7-7-7-7-*|
|--2---------|-5---5------|--2---------|-5---5----------|
  1 2 & 3 4  1 2 & 3 4   1 2 & 3 4  1 2 & 3 & 4 &


PRE-CHORUS 2:
|-----------|---------------|-----------|-------------|-----------|
|-----------|---------------|-----------|-------------|-----------|
|-5---5-5---|-7---7-7-9-----|-5---5-5---|-7---7-7-7-7-|-5---5-5---|
|-----------|-----------9-7-|-----------|-------------|-----------|
 1 2 & 3 4  1 2 & 3 & 4 &  1 2 & 3 4  1 2 & 3 & 4  1 2 & 3 4

|---------------|
|---------6-9---|
|-7---7-7-----8-|
|---------------|
 1 2 & 3 & 4 &


CHORUS:
|-----------|-------------|-----------|-----------|-----------|
|-----------|-------------|-----------|-----------|-----------|
|-----4-5---|-------7-7-7-|-----4-5---|-----------|-----4-5---|
|-2---------|-5---5-------|-2---------|-5---5-0-0-|-2---------|
 1 2 & 3 4  1 2 & 3 & 4  1 2 & 3 4  1 2 & 3 4  1 2 & 3 4

|-----------|-----------|-----------|-----------|-----------|
|-----------|-----------|-----------|-4---------|-----------|
|-------7-7-|-----4-5---|-------7-7-|-----4-5---|-------7-7-|
|-5---5-----|-2---------|-5---5-----|-----------|-5---5-----|
 1 2 & 3 4  1 2 & 3 4  1 2 & 3 4  1 2 & 3 4  1 2 & 3 4

|-----------|---------------|-----------|---------------|
|-4---------|---------------|-4---------|---------------|
|-----4-5---|-------7-7-7-7-|-----4-5---|-------7-7-7-7-|
|-----------|-5---5---------|-----------|-5---5---------|
 1 2 & 3 4  1 2 & 3 & 4 &  1 2 & 3 4  1 2 & 3 & 4 &

|-------------|-----------|-------------|-----------------|
|-------------|-------9-9-|-------------|-----------------|
|-5---5-5---5-|-7---7-----|-5---5-5---5-|-7-7-7-7---------|
|-------------|-----------|-------------|---------0-8-7-5-|
 1 2 & 3 4 &  1 2 & 3 4  1 2 & 3 4 &  1 & 2 & 3 & 4 &

|-------------|-----------------|
|-------------|-----------------|
|-5---5-5---5-|-7-7-7-7-7-7-7-7-|
|-------------|-----------------|
 1 2 & 3 4 &  1 & 2 & 3 & 4 &


SOLO:
									(x2)
|--------------|---------------|-------------|----------------|
|*-------------|---------------|-------------|---------------*|
|*-----4-5---5-|-------7-7-7-7-|-----4-5---5-|-0---0-0-7-0-7-*|
|--2-----------|-5---5---------|-2-----------|----------------|
  1 2 & 3 4 &  1 2 & 3 & 4 &  1 2 & 3 4 &  1 2 & 3 & 4 &


PRE-CHORUS 3:
|-----------|-----------|-----------|---------9-|-9-------|
|-----------|-----------|-----------|-------9---|---------|
|-5---5-5---|-----------|-5---5-5---|-4---5-----|-----7---|
|-----------|-5---0-0-0-|-----------|-----------|---------|
 1 2 & 3 4  1 2 & 3 4  1 2 & 3 4  1 2 & 3 4  1 2 3 4

|---------|
|---------|
|---------|
|-0-0-0---|
 1 2 3 4


CHORUS(END):
|-----------|-----------|-----------|-------------|-----------|
|-----------|-----------|-----------|-------------|-----------|
|-----4-5---|-------7-7-|-----4-5---|-------7-7-7-|-----4-5---|
|-2---------|-5---5-----|-2---------|-5---5-------|-2---------|
 1 2 & 3 4  1 2 & 3 4  1 2 & 3 4  1 2 & 3 & 4  1 2 & 3 4

|-----------|-----------|-----------|-----------|-----------|
|-----------|-----------|-----------|-4---------|-----------|
|-------7-7-|-----4-5---|-------7-7-|-----4-5---|-----------|
|-5---5-----|-2---------|-5---5-----|-----------|-5---5-0-0-|
 1 2 & 3 4  1 2 & 3 4  1 2 & 3 4  1 2 & 3 4  1 2 & 3 4

|-----------|---------------|-----------|---------|---|---------|
|-----------|---------------|-4---------|---------|-1-|---------|
|-----4-5---|-------7-7-7-7-|-----4-5---|-5-------|-R-|-5-------|
|-2---------|-5---5---------|-----------|---------|---|---------|
 1 2 & 3 4  1 2 & 3 & 4 &  1 2 & 3 4  1 2 3 4  4  1 2 3 4


Submitted by: Johari Taylor (viking@powerup.com.au)

Almost there ...

Sign in to get your own page with links to favourite songs and more. You are just one click away...

Login with Facebook Login with Google