Log in

One click and you are in

Login with Facebook Login with Google

Why sign up and log in

Guitar Tabs Explorer
Joan Osborne tabs for Ladder

Guitar tabs with lyrics

ladder
(J.Osborne, E.Bazilian, R.Hyman, R.Chertoff)
performed on joan osborne's "relish"(1995)

lyrics and leslie guitar
transcribed by Bryson Meunier
additions/corrections from ifaith@maila.wm.edu (interfaith council)
meunier.1@postbox.acs.ohio-state.edu

piano and acoustic guitar
transcribed by evan c. parker
ecpark@mail.wm.edu

leslie part sounds great, and the piano sounds better than an
acoustic (cheap imitation) but the acoustic is still playable if you
don't have a grand piano handy...  for the second part, only the
chords are given, as piano is difficult to transcribe through email.
a jazz pianist shouldn't have a hard time and playing the second part
as a second guitarist is very easy time.  good luck.

(thanks bryson for your earlier posting that i piggy backed off of...)

symbols used in transcription:
h = hammer-on
p = pull-off


intro: (clean electric with leslie speaker effect)
E-----------------------------------------------------|
B----3---3------------------------------------3-------|
G--------------2--------------2-------0---------------|
D------------------------0h2------2-------2-----------|
A-----------------------------------------------------|
E-----------------------------------------------------|

E-----------------------------------------------------|
B-----------------------------------------------------|
G------------------2-------0--------------------------|
D----2----2p0----------2-------0h2---2----------------|
A--------------2--------------------------------------|
E-----------------------------------------------------|

piano / acoustic guitar:

|  A chord diagramE MajorE          |             |             |             |
|  A chord diagramE MajorE          |             |             |             |

verse tab adds in with these measures:
|  A chord diagramE MajorE          |  A chord diagramG+G     A chord diagramD MajorD    |  A chord diagramC majorC          |  A chord diagramA minorAm    A chord diagramC majorC    |


verse
(all verses and choruses use this tab... the bridge uses a variation)
E-----------------------------------------------------|
B------------------------------------3----------------|
G-----------------2-------0---------------------------|
D----2---2p0----------2--------0h2--------2---2p0-----|
A-------------2------------------------------------2--|
E-----------------------------------------------------|

E---------------------------|
B---------------------------|
G---2-------0---------------|
D-------2-------0h2---2-----|
A---------------------------|
E---------------------------|


verse:

|  A chord diagramE MajorE          |  A chord diagramG+G     A chord diagramD MajorD    |  A chord diagramC majorC          |  A chord diagramA minorAm    A chord diagramC majorC    |
today and every day...


bridge:
|  A chord diagramE MajorE          |  A chord diagramG+G     A chord diagramD MajorD    |
you give me...


chorus:
|  A chord diagramE MajorE          |  A chord diagramG+G     A chord diagramD MajorD    |  A chord diagramC majorC          |  A chord diagramA minorAm    A chord diagramC majorC    |
i'm gonna love you...


verse chords (no lyrics) x2:
|  A chord diagramE MajorE          |  A chord diagramG+G     A chord diagramD MajorD    |  A chord diagramC majorC          |  A chord diagramA minorAm    A chord diagramC majorC    |


verse:
|  A chord diagramE MajorE          |  A chord diagramG+G     A chord diagramD MajorD    |  A chord diagramC majorC          |  A chord diagramA minorAm    A chord diagramC majorC    |
i wanted it to be easy...


bridge:
|  A chord diagramE MajorE          |  A chord diagramG+G     A chord diagramD MajorD    |
you give me...

repeat chorus.


verse-type outro:
|  A chord diagramE MajorE          |  A chord diagramG+G     A chord diagramD MajorD    |  A chord diagramC majorC          |  A chord diagramA minorAm    A chord diagramC majorC    |
hey hey hey...

Other versions of Ladder

LadderChords

Almost there ...

Sign in to get your own page with links to favourite songs and more. You are just one click away...

Login with Facebook Login with Google