Log in

One click and you are in

Login with Facebook Login with Google

Why sign up and log in

Guitar Tabs Explorer
Beth Orton tabs for Ooh child

Guitar tabs

Album: The Other Side of Daybreak



Transcribed by Lisa Frankel (Frankelisa81@hotmail.com)

This file is all my own work.

------------------------------------------------------

Beautiful song, this one.


Capo: 3rd Fret - all chords reflect





Verse:


 e|----0-----0-----0--|----0-----0-----0--|

b|------0-----0------|------0-----0------|

g|--6-----6-----6----|--4-----4-----4----|

d|-------------------|-------------------|

a|-------------------|-------------------|

A chord diagramE MajorE|-------------------|-------------------|



e|----0-----0-----0--|----0-----0-----0--|

b|------0-----0------|------0-----0------|

g|--2-----2-----2----|--2-----2-----2----|

d|-------------------|-------------------|

a|-------------------|-------------------|

A chord diagramE MajorE|-------------------|-------------------|






Chorus:


 (A chord diagramC majorC)

e|-------------------|-------------------|

b|----1-----1-----1--|----1-----1-----1--|

g|------0-----0------|------0-----0------|

d|--------2-----2----|--------0-----0----|

a|--3----------------|--2----------------|

A chord diagramE MajorE|-------------------|-------------------|


 (A chord diagramA minorAm)

e|-------------------|-------------------|

b|----1-----1-----1--|----1-----1-----1--|

g|------2-----2------|------2-----2------|

d|--------2-----2----|--------2-----2----|

a|--0----------------|--0----------------|

A chord diagramE MajorE|-------------------|-------------------|

Almost there ...

Sign in to get your own page with links to favourite songs and more. You are just one click away...

Login with Facebook Login with Google