Log in

One click and you are in

Login with Facebook Login with Google

Why sign up and log in

Guitar Tabs Explorer
The Orion Experience bass tabs for The cult of dionysus

The Cult Of Dionysus bass tab by The Orion Experience

The Orion Experience bass tabs for The cult of dionysus

Bass tabs

Tuning: Standard (E A D G)


Verse 1:

G|------6-6-4-4--------------9-9-7------------2-2-0-0--------------------------|
D|--------------6-6----------------9-9-----------------2-2-------4-4-2-2-------|
A|-4-4-----------------7-7---------------0-0-----------------------------2-3-4-|
E|----------------------------------------------------------2-2----------------|

G|------6-6-4-4--------------9-9-7------------2-2-0-0--------------------------|
D|--------------6-6----------------9-9-----------------2-2-------4-4-2-2-------|
A|-4-4-----------------7-7---------------0-0------------------------------4----|
E|----------------------------------------------------------2-2-------------4-5|

Pre-Chorus:

G|-------------------|
D|-------------------|
A|---4---------------|
E|-4-----------------|


Chorus:

G|-------------------------6----6-----9----9|
D|---7----7----6----6-----------------------|
A|----------------------4----4-----7----7---|
E|-5---5----4----4--------------------------|

G|--2----2--------------------6----6-----9----9-|
D|-------------6----6---------------------------|
A|-0---0-----------------4----4-----7----7------|
E|-----------4----4-----------------------------|

G|--2----2--------------------|
D|-------------6----6---------|
A|0---0----------------2-2----|
E|-----------4----4--------2-2|

Post-Chorus:

G|---6--6--6--6----9--9--9--9---2---2---2---2--------------------------------|
D|-----------------------------------------------4---4---4---4---------------|
A|-4--4--4--4---/7--7--7--7---0---0---0---0----------------------------------|
E|---------------------------------------------2---2---2---2-----------------|


Verse 2:

G|-----------------------------------------|
D|-----------------------------------------|
A|-4444444-/7777777-00000000---------------|
E|----------------------------22222222-----|

G|-------------------------------------------|
D|-------------------------------------------|
A|-4444444-/7777777-00000000---------------2/|
E|----------------------------22222222-0-2---|

G|------6-6-4-4--------------9-9-7------------2-2-0-0--------------------------|
D|--------------6-6----------------9-9-----------------2-2-------4-4-2-2-------|
A|-4-4-----------------7-7---------------0-0-----------------------------2-2---|
E|----------------------------------------------------------2-2----------------| (REPEAT TWICE)


Pre-Chorus 2:

G|-------------------|
D|-------------------|
A|---4---------------|
E|-4-----------------|


Chorus:

G|-----------------------------6----6-----9----9|
D|-------7----7----6----6-----------------------|
A|--------------------------4----4-----7----7---|
E|17/--5---5----4----4--------------------------|

G|--2----2--------------------6----6-----9----9-|
D|-------------6----6---------------------------|
A|-0---0-----------------4----4-----7----7------|
E|-----------4----4-----------------------------|

G|--2----2--------------------|
D|-------------6----6---------|
A|0---0----------------2-2----|
E|-----------4----4--------2-2|


Bridge:
Run, Run, Run away! Just take my hand and we'll abandon this world. Wash those tears away,
you're young and beautiful and i'll love you always
(BASS STARTS HERE)

G|------------------------------------------------------------------------|
D|------------------------------------------------------------------------|
A|---0-0-0-0-0-0-0-0-\-7-7-7-7-7-7-7-7-/-2-2-2-2-2-2-2-2------------------|
E|-4------------------------------------------------------4-4-4-4-4-4-4---|


Solo:

G|-------------------------6----6-----9----9|
D|---7----7----6----6-----------------------|
A|----------------------4----4-----7----7---|
E|-5---5----4----4--------------------------|

G|--2----2--------------------6----6-----9----9-|
D|-------------6----6---------------------------|
A|-0---0-----------------4----4-----7----7------| (REPEAT TWICE!)
E|-----------4----4-----------------------------|

G|--2----2--------------------------|
D|-------------6----6---------------|
A|0---0----------------2-2--------4/|
E|-----------4----4--------2-2------|


Final Verse:

G|---------|
D|---------|
A|---------|
E|-2/4\2---|

G|------6-6-4-4--------------9-9-7------------2-2-0-0--------------------------|
D|--------------6-6----------------9-9-----------------2-2-------4-4-2-2-------|
A|-4-4-----------------7-7---------------0-0-----------------------------2-3-4-|
E|----------------------------------------------------------2-2----------------|

G|------6-6-4-4--------------9-9-7------------2-2-0-0--------------------------|
D|--------------6-6----------------9-9-----------------2-2-------4-4-2-2-------|
A|-4-4-----------------7-7---------------0-0------------------------------4----|
E|----------------------------------------------------------2-2-------------4-5|


Finale Chorus:

G|-------------------|
D|-------------------|
A|---4---------------|
E|-4-----------------|

G|-------------------------6----6-----9----9|
D|---7----7----6----6-----------------------|
A|----------------------4----4-----7----7---|
E|-5---5----4----4--------------------------|

G|--2----2--------------------6----6-----9----9-|
D|-------------6----6---------------------------|
A|-0---0-----------------4----4-----7----7------|
E|-----------4----4-----------------------------|

G|--2----2---------------4---4--------|
D|-------------6----6-----------4---4-|
A|0---0----------------2---2----------|
E|-----------4----4-----------2---2---|


G|-------------------------6----6-----9----9|
D|---7----7----6----6-----------------------|
A|----------------------4----4-----7----7---|
E|-5---5----4----4--------------------------|

G|--2----2--------------------6----6-----9----9-|
D|-------------6----6---------------------------|
A|-0---0-----------------4----4-----7----7------|
E|-----------4----4-----------------------------|

G|--2----2-------------------------|
D|-------------6----6--------------|
A|0---0----------------2-2------4/-|
E|-----------4----4--------2-2-----|


************************************

| / Slide up
| \ Slide down

************************************

Almost there ...

Sign in to get your own page with links to favourite songs and more. You are just one click away...

Login with Facebook Login with Google