Log in

One click and you are in

Login with Facebook Login with Google

Why sign up and log in

Guitar Tabs Explorer
Orbit tabs for Bicycle song

Guitar tabs

Bicycle Song--Orbit: Libido Speedway

Tabbed by josh bratcher of The Clones (live@digitechs.com)
            A chord diagramEb5Eb5    A chord diagramB5B5    A chord diagramC#5C#5    A chord diagramF#5F#5    A chord diagramE5E5
Chords: e|------|------|------|------|------|
        A chord diagramBB|------|------|------|------|------|
        A chord diagramG+G|--8---|------|--6---|--11--|--9---|
        A chord diagramD MajorD|--8---|--9---|--6---|--11--|--9---|
        A chord diagramA augmentedA|--6---|--9---|--4---|--9---|--7---|
        A chord diagramE MajorE|------|--7---|------|------|------|
No distortion or band:
Intro:  A chord diagramEb5Eb5  A chord diagramB5B5  x4


Verse 1:
A chord diagramEb5Eb5    A chord diagramB5B5        A chord diagramEb5Eb5    A chord diagramB5B5  A chord diagramEb5Eb5   A chord diagramB5B5  A chord diagramEb5Eb5   A chord diagramB5B5
Kelsea won't you come ...
A chord diagramEb5Eb5   A chord diagramB5B5  A chord diagramEb5Eb5 A chord diagramB5B5    A chord diagramEb5Eb5  A chord diagramB5B5  A chord diagramEb5Eb5   A chord diagramB5B5
I got my ...
A chord diagramEb5Eb5       A chord diagramB5B5
My father bought ....


Chorus:
A chord diagramC#5C#5           A chord diagramB5B5
What a pretty ...
A chord diagramF#5F#5   A chord diagramE5E5                        x2
I     want one just ...t

A chord diagramEb5Eb5   A chord diagramB5B5 x4 w/distortion and band

Amiri won't you hear ...

Chorus 2:
What a pretty  song ....


Solo:  chords  A chord diagramEb5Eb5  A chord diagramB5B5
feedback:hold------->
|---11~---|---------|---------|
|---------|---------|---------|
|---------|---------|---------|
|---------|---------|---------|
|---------|---------|---------|
|---------|---------|---------|
  1                3   4      1 & 2
|------------|------------|------------|
|------------|------------|------------|
|-8~---------|-----9~--8~-|(6)6\8------|
|------------|------------|-------8~---|
|------------|------------|------------|
|------------|------------|------------|
  1                3   4      1 & 2 3 4              do repeat x8
|------------|------------|-------------|-----------|------------|
|------------|------------|-------------|-----------|------------|
|-8~---------|-----9~--8~-|(6)6\8-------|-----------|o-----------|
|------------|------------|-------8-6---|-----------|o-8-8^------|
|------------|------------|-----------6~|-----6^--6^|-------6^-6^|
|------------|------------|-------------|-----------|------------|

|------------|
|------------|
|-----------o|
|8-8^-------o|
|------6^-6^-|
|------------|


Chorus 1


Verse 3: Bass and Drums only

Kelsea won't you come out ....

Last Chorus:
Got a pretty song ....x4

A chord diagramC#5C#5  A chord diagramB5B5  A chord diagramF#5F#5  A chord diagramE5E5
Iii  Iii Iii  Iii

|-------|      |-----------|
|-------|      |-----------|
|7~7~7~-| %   %|--8~8~~----|  x2
|-------|      |-----------|
|-------|      |-----------|
|-------|      |-----------|
  1   2  3  4
|--------------|     |--11~----|
|--------------|     |---------|
|--7--4--5-----| x4  |---------| to the end
|-----------7--|     |---------|
|--------------|     |---------|
|--------------|     |---------|

Almost there ...

Sign in to get your own page with links to favourite songs and more. You are just one click away...

Login with Facebook Login with Google