Log in

One click and you are in

Login with Facebook Login with Google

Why sign up and log in

Guitar Tabs Explorer
Orb bass tabs for You are right

Bass tabs with lyrics

Tuning: Standard (E A D G)

Mostly 16th notes @ 97 BPM


Intro:

G|---------------------------------------------------------------------------|
D|---------------------------------------------------------------------------|
A|-0--0--12--0--0--10--0--0--15--0--14--0--10--0--14--12---------------------|
E|---------------------------------------------------------------------------| x6

Verse 1:

You don't have to change
G|---------------------------------------------------------------------------|
D|---------------------------------------------------------------------------|
A|-0--0--17--0--0--15--0--0--14--0--0--12~~--15-14-12-10~---10-9-10-9-10-12--|
E|---------------------------------------------------------------------------|

You can stay the same way
G|---------------------------------------------------------------------------|
D|---------------------------------------------------------------------------|
A|-0--0--17--0--0--15--0--0--14--0--0--12~~--15-14-12-10~---10-9-10-9-10-12--|
E|---------------------------------------------------------------------------|


You are right
G|---------------------------------------------------------------------------|
D|---------------------------------------------------------------------------|
A|-0--0--12--0--0--10--0--0--15--0--14--0--10--0--14--12---------------------|
E|---------------------------------------------------------------------------|

You are right
G|---------------------------------------------------------------------------|
D|---------------------------------------------------------------------------|
A|-0--0--12--0--0--10--0--0--15--0--14--0--10--0--14--12---------------------|
E|---------------------------------------------------------------------------|


Verse 2:

You don't have to believe
G|---------------------------------------------------------------------------|
D|---------------------------------------------------------------------------|
A|-0--0--17--0--0--15--0--0--14--0--0--12~~--15-14-12-10~---10-9-10-9-10-12--|
E|---------------------------------------------------------------------------|

Everything that you read
G|---------------------------------------------------------------------------|
D|---------------------------------------------------------------------------|
A|-0--0--17--0--0--15--0--0--14--0--0--12~~--15-14-12-10~---10-9-10-9-10-12--|
E|---------------------------------------------------------------------------|

You are right
G|---------------------------------------------------------------------------|
D|---------------------------------------------------------------------------|
A|-0--0--12--0--0--10--0--0--15--0--14--0--10--0--14--12---------------------|
E|---------------------------------------------------------------------------|

You are right
G|---------------------------------------------------------------------------|
D|---------------------------------------------------------------------------|
A|-0--0--12--0--0--10--0--0--15--0--14--0--10--0--14--12---------------------|
E|---------------------------------------------------------------------------|


Chorus:

You can             face them
G|---------9-------9--------------9---9-------9------------------------------|
D|---------------------------------------------------------------------------|
A|-7-7-7-7---7-7-7---7-7-7----7-7---7---7-7-7---7-7-7------------------------|
E|---------------------------------------------------------------------------|

Tell them what you want     You do what you want
G|---------7-------7--------------7---7-------7------------------------------|
D|---------------------------------------------------------------------------|
A|-5-5-5-5---5-5-5---5-5-5----5-5---5---5-5-5---5-5-5------------------------|
E|---------------------------------------------------------------------------|

It's your right
G|---------------------------------------------------------------------------|
D|---------------------------------------------------------------------------|
A|-0--0--12--0--0--10--0--0--15--0--14--0--10--0--14--12---------------------|
E|---------------------------------------------------------------------------| x4


Bridge:

G|---------------------------------------------------------------------------|
D|---------------------------------------------------------------------------|
A|-0--0--12--0--0--10--0--0--15--0--14--0--10--0--14--12---------------------|
E|---------------------------------------------------------------------------| x3

G|---------------------------------------------------------------------------|
D|---------------------------------------------------------------------------|
A|-0--0--12--0--0--10--0--0--15--0--14--0--10--0--14--12----3--3~---5--5~----|
E|---------------------------------------------------------------------------|

G|---------------------------------------------------------------------------|
D|---------------------------------------------------------------------------|
A|-0--0--12--0--0--10--0--0--15--0--14--0--10--0--14--12---------------------|
E|---------------------------------------------------------------------------| x5


Verse 3:

You can always say no
G|---------------------------------------------------------------------------|
D|---------------------------------------------------------------------------|
A|-0--0--17--0--0--15--0--0--14--0--0--12~~--15-14-12-10~---10-9-10-9-10-12--|
E|---------------------------------------------------------------------------|

You don't want to? say so
G|---------------------------------------------------------------------------|
D|---------------------------------------------------------------------------|
A|-0--0--17--0--0--15--0--0--14--0--0--12~~--15-14-12-10~---10-9-10-9-10-12--|
E|---------------------------------------------------------------------------|

You are right
G|---------------------------------------------------------------------------|
D|---------------------------------------------------------------------------|
A|-0--0--12--0--0--10--0--0--15--0--14--0--10--0--14--12---------------------|
E|---------------------------------------------------------------------------|

You are right
G|---------------------------------------------------------------------------|
D|---------------------------------------------------------------------------|
A|-0--0--12--0--0--10--0--0--15--0--14--0--10--0--14--12---------------------|
E|---------------------------------------------------------------------------|


Verse 4:

You don't have to go now
G|---------------------------------------------------------------------------|
D|---------------------------------------------------------------------------|
A|-0--0--17--0--0--15--0--0--14--0--0--12~~--15-14-12-10~---10-9-10-9-10-12--|
E|---------------------------------------------------------------------------|

Take your time and slow down
G|---------------------------------------------------------------------------|
D|---------------------------------------------------------------------------|
A|-0--0--17--0--0--15--0--0--14--0--0--12~~--15-14-12-10~---10-9-10-9-10-12--|
E|---------------------------------------------------------------------------|

You are right
G|---------------------------------------------------------------------------|
D|---------------------------------------------------------------------------|
A|-0--0--12--0--0--10--0--0--15--0--14--0--10--0--14--12---------------------|
E|---------------------------------------------------------------------------|

You are right
G|---------------------------------------------------------------------------|
D|---------------------------------------------------------------------------|
A|-0--0--12--0--0--10--0--0--15--0--14--0--10--0--14--12---------------------|
E|---------------------------------------------------------------------------|


Chorus:

You can             face them
G|---------9-------9--------------9---9-------9------------------------------|
D|---------------------------------------------------------------------------|
A|-7-7-7-7---7-7-7---7-7-7----7-7---7---7-7-7---7-7-7------------------------|
E|---------------------------------------------------------------------------|

Tell them what you want     You do what you want
G|---------7-------7--------------7---7-------7------------------------------|
D|---------------------------------------------------------------------------|
A|-5-5-5-5---5-5-5---5-5-5----5-5---5---5-5-5---5-5-5------------------------|
E|---------------------------------------------------------------------------|

It's your right
G|---------------------------------------------------------------------------|
D|---------------------------------------------------------------------------|
A|-0--0--12--0--0--10--0--0--15--0--14--0--10--0--14--12---------------------|
E|---------------------------------------------------------------------------| x4


Bridge:

G|---------------------------------------------------------------------------|
D|---------------------------------------------------------------------------|
A|-0--0--12--0--0--10--0--0--15--0--14--0--10--0--14--12---------------------|
E|---------------------------------------------------------------------------| x3

G|---------------------------------------------------------------------------|
D|---------------------------------------------------------------------------|
A|-0--0--12--0--0--10--0--0--15--0--14--0--10--0--14--12----3--3~---5--5~----|
E|---------------------------------------------------------------------------|

G|---------------------------------------------------------------------------|
D|---------------------------------------------------------------------------|
A|-0--0--12--0--0--10--0--0--15--0--14--0--10--0--14--12---------------------|
E|---------------------------------------------------------------------------| x3

G|---------------------------------------------------------------------------|
D|---------------------------------------------------------------------------|
A|-0--0--12--0--0--10--0--0--15--0--14--0--10--0--14--12----3--3~---5--5~----|
E|---------------------------------------------------------------------------|



Outro:

G|---------------------------------------------------------------------------|
D|---------------------------------------------------------------------------|
A|-0--0--12--0--0--10--0--0--9--0--0--7~~--10-9-7-5~---5-4-5-4-5-7-----------|
E|---------------------------------------------------------------------------| x4

G|---------------------------------------------------------------------------|
D|---------------------------------------------------------------------------|
A|-0--0--12--0--0--10--0--0--15--0--14--0--10--0--14--12~--------------------|
E|---------------------------------------------------------------------------|


************************************
| ~  Vibrato
************************************

Almost there ...

Sign in to get your own page with links to favourite songs and more. You are just one click away...

Login with Facebook Login with Google