Log in

One click and you are in

Login with Facebook Login with Google

Why sign up and log in

Guitar Tabs Explorer
ORANGE RANGE tabs for Asterisk

Guitar tabs

Drop A chord diagramD MajorD


Intro riff
e-------------|
b-------------|
g-------------|
d--------10~--|
a-7h8-10------|
d-------------|
Intro/Chorus
(For this part, you can either strum once and let it ring or play rhythm with the chords)
e-----------------------------------------------------|
b-----------------------------------------------------|
g-----------------------------------------------------|
d-3~--5~--7~--10~--5-3~--5~--7~--7--7-5-3~--5~--7~--7-|
a-3~--5~--7~--10~--5-3~--5~--7~--7--7-5-3~--5~--7~--7-|
d-3~--5~--7~--10~--5-3~--5~--7~--7--7-5-3~--5~--7~--7-|


Break
e------------------------------------------------------|
b------------------------------------------------------|
g-4/5-55-5555/7-77-4-5-9-5-4/5-55-5555/1212-1010-99-5--|
d-x/x-xx-xxxx/x-xx-x-x-x-x-x/x-xx-xxxx/-x-x--x-x-xx-x--|
a-2/3-33-3333/5-55-2-3-7-3-2/3-33-3333/1010--8-8-77-3--|
d------------------------------------------------------|

e--------------------------------------------------|
b--------------------------------------------------|
g-4/5-55-5555/7-77-4-5-9-5-4/5-55-5555-4/5-55-555--|
d-x/x-xx-xxxx/x-xx-x-x-x-x-x/x-xx-xxxx-x/x-xx-xxx--|
a-2/3-33-3333/5-55-2-3-7-3-2/3-33-3333-2/3-33-333--|
d--------------------------------------------------|

Verse
Synth
e--------------------|
b-1010101010101010~--|
g--------------------| repeat
d--------------------| many
a--------------------| times
d--------------------|

Guitar
e-15--15---------------------|
b--------13--13-15--15-------|
g----------------------12-12-|
d----------------------------|
a----------------------------|
d----------------------------|


Pre-Chorus
e--------------------|
b--------------------|
g-----------7~-------|
d-3~---2~---7~---5~--|
a-3~---2~---5~---5~--|
d-3~---2~--------5~--|


Intro Riff

Chorus

Verse

Pre-chorus

Chorus


Bridge
e-------------------------------|
b-------------------------------|
g-------------------------------|
d-7-77-5/7--7-8-8-7777-5/7--7-8-|
a-7-77-5/7--7-8-8-7777-5/7--7-8-|
d-7-77-5/7--7-8-8-7777-5/7--7-8-|

Post Bridge
Synth
e--------------------    ------------------11-|
b-1111111111111111---    -1111111111111111----|
g----("11's")-------- 3x ---------------------| on the
d--------------------    ---------------------| fourth
a--------------------    ---------------------| time
d--------------------    ---------------------|

Guitar
e--------------------|
b--------9-----------|
g---8-10---10-8-10-8-|
d-8------------------|
a--------------------|
d--------------------|

Final chorus
e---------------------------------|
b---------------------------------|
g---------------------------------|
d-4~--6~--8~--3~--4~--6~--8~--3~--|
a-4~--6~--8~--3~--4~--6~--8~--3~--|
d-4~--6~--8~--3~--4~--6~--8~--3~--|

e-----------------------------------------------------------------|
b-----------------------------------------------------------------|
g---------8-8-8-8-8-8-8-8---------8-8-8-8-8-8-8-8-6-6-6-6-8-8-8-8-|
d-4~--6~--x-x-x-x-x-x-x-x-4~--3~--x-x-x-x-x-x-x-x-x-x-x-x-x-x-x-x-|
a-4~--6~--6-6-6-6-6-6-6-6-4~--3~--6-6-6-6-6-6-6-6-4-4-4-4-6-6-6-6-|
d-4~--6~------------------4~--3~----------------------------------|

Finish song with the Post Bridge
ⓘ Guitar tab for 'Asterisk' by ORANGE RANGE, a j-pop band formed in 2001 from Okinawa, Japan. ORANGE RANGE is known for their cheerful asian music.

Almost there ...

Sign in to get your own page with links to favourite songs and more. You are just one click away...

Login with Facebook Login with Google