Search tabs and chords

Search for song, artist or band

Log in

One click and you are in

Login with Facebook Login with Google

Why sign up and log in

Guitar Tabs Explorer
Opwekking guitar chords for Opwekking 720 - god maakt vrij

Opwekking 720 - God Maakt Vrij chords by Opwekking

Opwekking guitar chords for Opwekking 720 - god maakt vrij

Guitar chords with lyrics

Tuning: Standard (E A D G B E)

Key: A chord diagramC majorC

Difficulty: Intermediate

Opwekking 720 - God maakt vrij

Key   = A chord diagramC majorC
Time  = 4/4
Tempo = 98

Chords:
   Pre-chorus                                 Chorus
   A chord diagramC majorC  A chord diagramC6C6 A chord diagramCsusCsus A chord diagramFMaj9Fmaj9 A chord diagramFmaj7Fmaj7 A chord diagramF2F2 A chord diagramAm7Am7 A chord diagramA minorAm F2/A A chord diagramF2F2   A chord diagramC majorC  A chord diagramG MajorG A chord diagramAm7Am7 A chord diagramF2F2
e|-8--8---8----8-----8----8---8--8---8---8--|-8--3--5--8---|
B|-8--10--8----8-----10---8---8--10--8---8--|-8--3--5--8---|
G|-9--9---10---9-----9----10--9--9---10--10-|-9--4--5--10--|
D|-10-10--10---10----10---10--10-10--10--10-|-10-5--5--10--|
A|-------------8-----8----8---0--0---0---8--|-10-5--7--8---|
E|-8--8---8---------------------------------|-8--3--5------|


Intro:
   A chord diagramC majorC
e|---------0-------|---------0-------|---------0-------|---------0-------|
B|-------8-----8---|-------8-----8---|-------8-----8---|-------8---------|
G|-----9---------9-|-----9---------9-|-----9---------9-|-----9-----------|
D|---10------------|---10------------|---10------------|---10------------|
A|-----------------|-----------------|-----------------|-----------------|
E|-8---------------|-8---------------|-8---------------|-8---------------|
   1 + 2 + 3 + 4 +   1 + 2 + 3 + 4 +   1 + 2 + 3 + 4 +   1 + 2 + 3 + 4 +

Verse:
                  A chord diagramC majorC (Riff 1)
In de Naam van de Vader, in de Naam van de Zoon
                  A chord diagramF2F2
In de Naam van de Geest voor Uw troon
                A chord diagramAm7Am7
Zijn wij hier gekomen en verhogen Uw Naam
              A chord diagramF2F2                        A chord diagramC majorC
U geeft ons genade, U roepen wij aan.

Verse:
                  A chord diagramC majorC (Riff 1)
In de Naam van de Vader, in de Naam van de Zoon
                  A chord diagramF2F2
In de Naam van de Geest voor Uw troon
                A chord diagramAm7Am7
Zijn wij hier gekomen en verhogen Uw Naam
              A chord diagramF2F2
U geeft ons genade, U roepen wij aan.

Pre-chorus:
         A chord diagramC majorC       A chord diagramC6C6         A chord diagramCsusCsus     A chord diagramC majorC
Hoor ons loflied Heer, Onze dank weerklinkt
        A chord diagramFMaj9Fmaj9  A chord diagramFmaj7Fmaj7      A chord diagramF2F2     A chord diagramFMaj9Fmaj9
Eng'len buigen neer, Uw gemeente zingt
     A chord diagramAm7Am7        A chord diagramA minorAm         F2/A     A chord diagramAm7Am7
En U draagt ons hoog op Uw vleugels mee
        A chord diagramF2F2
Heel de wereld ziet het

Chorus:
          A chord diagramC majorC               A chord diagramG MajorG
God maakt vrij, God maakt vrij
       A chord diagramAm7Am7        A chord diagramF2F2
In die hoop leven wij.

Verse:
                  A chord diagramC majorC (Riff 1)
In de Naam van de Vader, in de Naam van de Zoon
                  A chord diagramF2F2
In de Naam van de Geest voor Uw troon
                A chord diagramAm7Am7
Zijn wij hier gekomen en verhogen Uw Naam
              A chord diagramF2F2
U geeft ons genade, U roepen wij aan.

Pre-chorus:
         A chord diagramC majorC       A chord diagramC6C6         A chord diagramCsusCsus     A chord diagramC majorC
Hoor ons loflied Heer, Onze dank weerklinkt
        A chord diagramFMaj9Fmaj9  A chord diagramFmaj7Fmaj7      A chord diagramF2F2     A chord diagramFMaj9Fmaj9
Eng'len buigen neer, Uw gemeente zingt
     A chord diagramAm7Am7        A chord diagramA minorAm         F2/A     A chord diagramAm7Am7
En U draagt ons hoog op Uw vleugels mee
        A chord diagramF2F2
Heel de wereld ziet het

Chorus:
          A chord diagramC majorC               A chord diagramG MajorG
God maakt vrij, God maakt vrij
       A chord diagramAm7Am7        A chord diagramF2F2
In die hoop leven wij.
       A chord diagramC majorC               A chord diagramG MajorG
Ons verdriet wordt een lied
          A chord diagramAm7Am7             A chord diagramF2F2
God maakt vrij, God maakt vrij

Interlude:
A chord diagramG MajorG   A chord diagramF2F2   A chord diagramG MajorG   A chord diagramF2F2   A chord diagramG MajorG   A chord diagramF2F2   A chord diagramAm7Am7   A chord diagramAm7Am7

Pre-chorus:
         A chord diagramC majorC       A chord diagramC6C6         A chord diagramCsusCsus     A chord diagramC majorC
Hoor ons loflied Heer, Onze dank weerklinkt
        A chord diagramFMaj9Fmaj9  A chord diagramFmaj7Fmaj7      A chord diagramF2F2     A chord diagramFMaj9Fmaj9
Eng'len buigen neer, Uw gemeente zingt
     A chord diagramAm7Am7        A chord diagramA minorAm         F2/A     A chord diagramAm7Am7
En U draagt ons hoog op Uw vleugels mee
        A chord diagramF2F2                     A chord diagramF2F2
Heel de wereld ziet het, ja de wereld ziet het

Chorus:
          A chord diagramC majorC               A chord diagramG MajorG
God maakt vrij, God maakt vrij
       A chord diagramAm7Am7        A chord diagramF2F2
In die hoop leven wij.
       A chord diagramC majorC               A chord diagramG MajorG
Ons verdriet wordt een lied
          A chord diagramAm7Am7             A chord diagramF2F2
God maakt vrij, God maakt vrij
          A chord diagramC majorC               A chord diagramC majorC
God maakt vrij, God maakt vrij
          A chord diagramC majorC               A chord diagramC majorC
God maakt vrij, God maakt vrij

***********************************************

Riff 1:
   A chord diagramC majorC                                   A chord diagramFF
e|---------0-------|---------0-------|---------0-------|---------0-------|
B|-------8-----8---|-------8-----8---|-------8-----8---|-------8----8----|
G|-----9---------9-|-----9---------9-|-----9---------9-|-----9--------9--|
D|---10------------|---10------------|---10------------|---10------------|
A|-----------------|-----------------|-8---------------|-8---------------|
E|-8---------------|-8---------------|-----------------|-----------------|
   1 + 2 + 3 + 4 +   1 + 2 + 3 + 4 +   1 + 2 + 3 + 4 +   1 + 2 + 3 + 4 +

   A chord diagramAm7Am7                                 A chord diagramFF
e|---------0-------|---------0-------|---------0-------|---------0-------|
B|-------8-----8---|-------8-----8---|-------8-----8---|-------8----8----|
G|-----9---------9-|-----9---------9-|-----9---------9-|-----9--------9--|
D|---10------------|---10------------|---10------------|---10------------|
A|-0---------------|-0---------------|-8---------------|-8---------------|
E|-----------------|-----------------|-----------------|-----------------|
   1 + 2 + 3 + 4 +   1 + 2 + 3 + 4 +   1 + 2 + 3 + 4 +   1 + 2 + 3 + 4 +

   A chord diagramC majorC
e|---------0-------|---------0-------|
B|-------8-----8---|-------8---------|
G|-----9---------9-|-----9-----------|
D|---10------------|---10------------|
A|-----------------|-----------------|
E|-8---------------|-8---------------|
   1 + 2 + 3 + 4 +   1 + 2 + 3 + 4 +

Almost there ...

Sign in to get your own page with links to favourite songs and more. You are just one click away...

Login with Facebook Login with Google