Log in

One click and you are in

Login with Facebook Login with Google

Why sign up and log in

Guitar Tabs Explorer
Optimus Ska tabs for If you were

Guitar tabs

Optimus_Ska:-) >IF YOU WERE


INTRO(x2)

---------------------------------------
---------------------------------------
---------------------------------------
---4--4-----0--0-----------------------
--3--3--3--3--3--3---------------------
-2--2--2--2--2--2----------------------

---------------------------------------
---------------------------------------
---------------------------------------
---2--2-----2--2-----------------------
--3--3--3--3--3--3---------------------
-2--2--2--0--0--0----------------------


CHORUS <Drop A chord diagramD MajorD

---------------------------------------
---------------------------------------
---------------------------------------
310-310-310-310-3565-------------------
310-310-310-310-3565-------------------
310-310-310-310-3565-------------------


SOLO THING \m/

---------------------------------------
---------------------------------------
000-000-0000-1/360---------------------
000-000-0000-1/360---------------------
000-000-0000-1/360---------------------
000-000-0000-1/360---------------------
Pm.....................................

BASS<for chorus

---------------------------------------
---------------------------------------
-----------------56543210--------------
310-310-310-310------------------------

tabbed by dean+ash2003 optimus_ska@hotmail.com
www.optimusska.cjb.net

Almost there ...

Sign in to get your own page with links to favourite songs and more. You are just one click away...

Login with Facebook Login with Google