Log in

One click and you are in

Login with Facebook Login with Google

Why sign up and log in

Guitar Tabs Explorer
Opeth tabs for Patterns in the ivy

Guitar tabs

Hi people ,well this is a good band ,with a wierd a music,,this song
 it's really good and easy to play here it is ,,Enjoy
THis song hasn't voice or lyrics


Intro/verses

E--------------------0----------0---------------------------------
B----------------0------0-------- 0-------------------------------X 4
G------------2------------2/5--------5------------------------------
D--------2-------------------------------------------------------
A---0-----------------------------------------3-----3--------------
E--------------------------------------------------------3---0-----

E------------------------------------------------------------------
B--------------------------------0---------------------------------
G-----------------2-----------------2-----------------4---------------
D-------------3------3-----------------4-----------5-----5--------------
A--------3------------3------4------------------5----------5------------
E--1--------------------- 2------------- 2---3------------------------


E------------------------------------------------------------------
B-----------------------------------------------------------------
G----------------5---5--4---------------------------------------------
D------------6------------6------------------------------------------
A--------6----------------------------------------------------------
E----4---------------------------------------------------------------
Well that's the song ,,enjoy ,if you have some comentarie email me
: eagluestorm@hotmail.com

Almost there ...

Sign in to get your own page with links to favourite songs and more. You are just one click away...

Login with Facebook Login with Google