Log in

One click and you are in

Login with Facebook Login with Google

Why sign up and log in

Guitar Tabs Explorer
Opeth tabs for Masters apprentice

Guitar tabs with lyrics

..  - palm mute          /  - slide up to
\  - slide down to      ~  - vibrato
h  - hammer on          b  - bend
p  - pull off            Suffixes for bend
                          ph - pinch harmonic
                           f - full bend    h - half bend
*  - see comment           r - release      t - tap bend
X  - percussion mute       ~ - vibrato bend
@  - slight palm mute     () - ghost note, sustained note

Tune Gtr to (EADGBE)

(Masters Apprentice)


Riff A chord diagramA augmentedA (six times)
x x x x x x x x x x x x x x x x
|----------------------------------------|
|----------------------------------------|
|----------------------------------------|
|3-----2-x-2-2-2--2----------------------|
|3-----2-x-2-2-2--2----------------------|
|1-----0-x-0-0-0--0--1--0--4----5~-------|


Riff A chord diagramA augmentedA (continued...)
x x x x x x x x x x x x x x x x
|--------------------------------------|
|--------------------------------------|
|--------------------------------------|
|3---2-x-2-2-2--2----------------------|
|3---2-x-2-2-2--2----------------------|
|1---0-x-0-0-0--0--1--0--4----5---8----|

The rythym differs on the entry note (I am not going to tab it each
time -
just listen to the song)

Riff A chord diagramBB (4 times)
|---------------------------------------------|
|---------------------------------------------|
|-----------------------------10-10-10-10-10--|
|9--9-9--9--9-9--9--9--7\6-6--8--8--8--8--8---|
|9--9-9--9--9-9--9--9--7\6-6--8--8--8--8--8---|
|7--7-7--7--7-7--7--7--5\4-4------------------|


Riff A chord diagramA augmentedA (6 times)


Riff A chord diagramA augmentedA (continued...)
x x x x x x x x x x x x x x x x
|--------------------------------------------|
|--------------------------------------------|
|--------------------------------------------|
|3---2-x-2-2-2--2----------------------------|
|3---2-x-2-2-2--2-----------------6~---6-----|
|1---0-x-0-0-0--0--1--0--4----5-----5h8-5~--1|


Riff A chord diagramC majorC (Repeat 4 times)
x x x x x x x x x x x x x x x x x x x x x x x x x x x x x x x x x x x x
x x
|------------------------------------------------------------------------------
|------------------------------------------------------------------------------
|------------------------------------------------------------------------------
|------------------------------------------------------------------------------
|-------------------------8~-----6p5---------------ph--------------------------
|--0--3-4--3-4-5-6-7--6-7----6-7-----7p6--3h6-4----1---------------------------


Riff A chord diagramD MajorD (repeat 6 times - this is tricky to play, and I'm not 100% sure
of
it, but it sounds OK :(
Two guitars arranged for one - if anyone can add the seperate guitar
parts
feel free :)

x x x x x x x x x x x x x x x x x x x x x x x x x x x x x
|------------------------------------------------------|
|------------------------------------------------------|
|-------------------2----------------------------------|
|2\1-----1--1-----6---6------2\1-----------------------|
|3\2-----2--2---3-------3----3\2--------------4--------|
|----0-0--------4-----------------s6--5---4-3---6p0----|
     @ @ let ring


Riff A chord diagramE MajorE (Repeat 4 times)
x x x x x x x x x x x x x x x x x x x x x x x x x x x x x x x x x
|-------------------------------------------------------------|
|-------------------------------------------------------------|
|-------------------------------------------------------------|
|-------------------------------------------------------------|
|-2-2-2---2---2-2-2---2--2p1p0------------------------2-2-5-5-|
|-0-0-0---0---0-0-0---0--------1--0---5b6r5--1--0-4-4---------|

Lead over Riff A chord diagramE MajorE will follow later (mebbe :))

Repeat Riff A chord diagramD MajorD four times

Repeat Riff A chord diagramE MajorE four times - last time play
x x x x x x x x x x x x x x x x x x x x x x x x x x x x x x x x
|-------------------------------------------------------------| |-------------------------------------------------------------|
|-------------------------------------------------------------|
|-------------------------------------------------------------|
|-2-2-2---2---2-2-2---2--2p0--------------3-3-3-5-5-5-6h7-----|
|-0-0-0---0---0-0-0---0-----4-5-5-5-7-7-7---------------------|



Riff A chord diagramFF (play twice)
x x x x x x x x x x x x x x x x x x x x x x x x x x x x x x x x
|-------------------------------------------------------------|
|-------------------------------------------------------------|
|-------------------------------------------------------------|
|-7-7--x-x--7-7--x-x---7-7-x-x-7-7--x-x--7-7--x-x--7-7--------|
|-7-7--x-x--7-7--x-x---7-7-x-x-5-5--x-x--5-5--x-x--5-5--------|
|-5-5--x-x--5-5--x-x---5-5-x-x-7-7--x-x--7-7--x-x--7-7--------|


Riff A chord diagramFF (continued)
x x x x x x x x x x x x x x x x x x x x x x x x x x x x x x x x
|-------------------------------------------------------------|
|-------------------------------------------------------------|
|-------------------------------------------------------------|
|-4-4--x-x--4-4--x-x---4-4-x-x-3-3--x-x--3-3--x-x--3-3--------|
|-3-3--x-x--3-3--x-x---3-3-x-x-3-3--x-x--3-3--x-x--3-3--------|
|-2-2--x-x--2-2--x-x---2-2-x-x-1-1--x-x--1-1--x-x--1-1--------|


Riff G(play eight times - I am VERY unsure of this - difficult to hear
:(
x x x x x x x x x x x x x x x x x x x x x x x x x x x x x x x x
|-------------------------------------------------------------|
|-------------------------------------------------------------|
|-9-9-9-9--9-9-9-9--9-9-9-x--9-9-9-9--9-9-9-9-----------------|
|-7-7-7-7--7-7-7-7--7-7-7-x--6-6-6-6--6-6-6-6-----------------|
|-8-8-8-8--8-8-8-8--8-8-8-x--8-8-8-8--8-8-8-8-----------------|
|-------------------------------------------------------------|

Repeat Riff A chord diagramFF two times - end on

x x x x x x x x x x
|-0------------------|
|-0------------------|
|-2------------------|
|-4------------------|
|-5------------------|
|--------------------|
let ring


Riff H acoustic eight times(accompanies solo - which sounds tricky - I
can't
promise anything :-))
x x x x x x x x x x x x x x x x x x x x x x x x x x x x x x x x
|-0--0---0-0-0-0-----0--0---0-0-0-0---------------------------------|
|-0--0---0-0-0-0-----0--0---0-0-0-0---------------------------------|
|-5--5---5-5-5-5-----0--0---0-0-0-0---------------------------------|
|-2--2---2-2-2-2-----4--4---4-4-4-4---------------------------------|
|-0--0---0-0-0-0-----2--2---2-2-2-2---------------------------------|
|--------------------0--0---0-0-0-0---------------------------------|

listen to strumming rythym - this notation is vague at best :)


Riff I eight times (acoustic)
x x x x x x x x x x x x x x x x x x x x x x x x x x x x x x x x
|-------------------------------------------------------------------|
|-7--7---7-7-7-7-----5--5---5-5-4h5--5------------------------------|
|-5--5---5-5-5-5-----6--6---6-6-6-6--6------------------------------|
|-7--7---7-7-7-7-----6--6---6-6-6-6--6------------------------------|
|-0--0---0-0-0-0-----4--4---4-4-4-4--4------------------------------|
|-------------------------------------------------------------------|

listen to strumming rythym - this notation is vague at best :)


Bridge (not quite right - corrections welcome :))
x x x x x x x x x x x x x x x x x x x x x x x x x x x x x x x x
|---------------0---0-----------------------------------------------|
|--7----7-------0---0-----------------------------------------------|
|--9----9-------6---6---3--3-----3---3-3----------------------------|
|--9----9-------7---7---2--2-----2---2-2----------------------------|
|--9----9-------7---7---4--4-----4---4-4----------------------------|
|--7----7-------5---5---2--2-----2---2-2----------------------------|

listen to strumming rythym - this notation is vague at best :)


Riff J (four times - acoustic)
x x x x x x x x x x x x x x x x x x x x x x x x x x x x x x
|--4-----4-4-4--4-----0---0-0-0-0-0-0---------------------|
|--4-----4-4-4--4-----0---0-0-0-0-0-0---------------------|
|--4-----4-4-4--4-----0---0-0-0-0-0-0---------------------|
|--4-----4-4h6--6-----4---4-4-4-4-4-4---------------------|
|--6-----6-6-6--6-----2---2-2-2-2-2-2---------------------|
|--4-4-4-4-4-4--4-----0---0-0-0-0-0-0---------------------|

Last Time play
x x x x x x x x x x x x x x x x x x x x x x x x x x x x x x
|--4-----4-4-4--4-----------------------------------------|
|--4-----4-4-4--4-----------------------------------------|
|--4-----4-4-4--4-------------3--3--3---------------------|
|--4-----4-4h6--6-----4--4-4--4--4--4---------------------|
|--6-----6-6-6--6-----6--6-6--4--4--4---------------------|
|--4-4-4-4-4-4--4-----2--2-2--2--2--2---------------------|


Riff J (four times - acoustic)
x x x x x x x x x x x x x x x x x x x x x x x x x x x x x x
|--0-----0-0-0--0-----0---0-0-0-0-0-0---------------------|
|--4-----4-4-4--4-----0---0-0-0-0-0-0---------------------|
|--4-----4-4-4--4-----2---2-2-2-2-2-2---------------------|
|--4-----4-4-4--4-----2---2-2-2-2-2-2---------------------|
|--2-----2-2-2--2-----0---0-0-0-0-0-0---------------------|
|---------------------------------------------------------|


Riff K (four times - acoustic)
x x x x x x x x x x x x x x x x x x x x x x x x x x x x x x
|--0-----0-0-0--0-----4---4-4-4-4-4-4---------------------|
|--0-----0-0-0--0-----4---4-4-4-4-4-4---------------------|
|--5-----5-5-5--5-----6---6-6-6-6-6-6---------------------|
|--2-----2-2-2--2-----6---6-6-6-6-6-6---------------------|
|--0-----0-0-0--0-----4---4-4-4-4-4-4---------------------|
|---------------------------------------------------------|


Bridge (Electric guitar comes back in with)
x x x x x x x x x x x x x x x x x x x x x x x x x x x x x x
|---------------------------------------------------------|
|---------------------------------------------------------|
|---------------------------------------------------------|
|---4----4----4----4---4---4------------------------------|
|---3----3----3----3---3---3------------------------------|
|---2----2----2----2---2---2-----0-2-3-0-3-5-6~-----------|


Riff L - six times (played under solos - to be added later)
x x x x x x x x x x x x x x x x x x x x x x x x x x x x x x
|------------------------------------------------------------------------------
|------------------------------------------------------------------------------
|------------------------------------------------------------------------------
|------------------------------------------------------------------------------
|---5-7---5-7---5-7---5-7---5-7---5-7---5-7---5-7---5-7---5-7---5-7---5-7------
|-0-----0-----0-----0-----0-----0-----0-----0-----0-----0-----0-----0-----0-2-3

 continued ... e 0-3-5-6~|


Riff M (repeat until end and fade out - lead to be added later)
x x x x x x x x x x x x x x x x x x x x x x x x x x x x x x
|---------------------------------------------------------|
|---------------------------------------------------------|
|---------------------------------------------------------|
|--------------2---2-2-2-2---2--2-2-2-2---2--2-2-2-2------|
|--------------3---3-3-3-3---4--4-4-4-4---4--4-4-4-4------|
|-0---0-0-0-0--0---0-0-0-0---0--0-0-0-0---0--0-0-0-0------|


Riff M (continued...)
x x x x x x x x x x x x x x x x x x x x x x x x x x x x x x
|---------------------------------------------------------|
|---------------------------------------------------------|
|---------------------------------------------------------|
|--------------7---7-7-7-7---2--2-2-2-2---2--2-2-2-2------|
|--------------5---5-5-5-5---3--3-3-3-3---3--3-3-3-3------|
|-0---0-0-0-0--0---0-0-0-0---5--5-5-5-5---5--5-5-5-5------|

Other versions of Masters Apprentice

Masters apprenticesTabs

Almost there ...

Sign in to get your own page with links to favourite songs and more. You are just one click away...

Login with Facebook Login with Google