Log in

One click and you are in

Login with Facebook Login with Google

Why sign up and log in

Guitar Tabs Explorer
Opeth tabs for In my time of need

Guitar tabs

In My Time Of Need


Intro.

|----------0--------|----------0---3------|
|--------7---7------|------1-----1-----1--|
|------0-------0----|----4---4-------4----|
|----7-----------7--|---------------------|
|-------------------|--0------------------|
|--0----------------|---------------------|


Pre Chorus: "Summer is miles and miles away..."

1.        2.3.      x8
|--4------|--2------|--1------|
|----4----|----2----|----1----|
|------6--|------4--|------3--|
|---------|---------|---------|
|---------|---------|---------|
|---------|---------|---------|

Other versions of In My Time Of Need

In my time of needChords
In my time of need live - soloTabs

Almost there ...

Sign in to get your own page with links to favourite songs and more. You are just one click away...

Login with Facebook Login with Google