Log in

One click and you are in

Login with Facebook Login with Google

Why sign up and log in

Guitar Tabs Explorer
Opeth tabs for Harvest

Guitar tabs

Album:blackwater park
Submitted:frank sortelli

Tuning:unknown
I.repeat 4 times
 |--0-----0-----0-----0-----0-----0-----0-----0-------|
 |--0-----0-0---0-----0-0---0-----0-0---0-----0-0-----|
 |--0-----0-0-0-0-----0-0-0-0-----0-0-0-0-----0-0-0---|
 |--2-------2-2-2-------2-2-5-------5-5-0-------2-2---|
 |--2-----------2-----------2-----------2-------------|
 |--0-----------0-----------0-----------0-------------|

 II.repeat 4 times
 acoustic gtr
 |--7-7-7-7-----5-5-5-5-----3---3-3-----2-2-2-2-----3-3-3-0-0-0-0-----0-----0-----0-----0-----0-------|
 |--8-8-8-8-----5-5-5-5-----3---3-3-----3-3-3-3-----3-3-3-0-0-0-0-----0-0---0-----0-0---0-----0-0-----|
 |--9---9-------7---7-------5-----5-----4---4-------3---3---0---0-----0-0-0-0-----0-0-0-0-----0-0-0---|
 |--9-----------7-----------5-----------4-----------5-----------2-------2-2-5-------5-5-0-------2-2---|
 |--7-----------5-----------3-----------2-----------5-----------2-----------2-----------2-------------|
 |--------------------------------------------------3-----------0-----------0-----------0-------------|
 |electric gtr
 |--------------------------------------5-----------7-------10----------------------------------------|
 |--5--------------------------------------------------------*--5-------------------------------------|
 |----------------------------------------------------------------------------------------------------|
 |----------------------------------------------------------------------------------------------------|
 |----------------------------------------------------------------------------------------------------|
 |----------------------------------------------------------------------------------------------------|

Other versions of Harvest

HarvestChords

Almost there ...

Sign in to get your own page with links to favourite songs and more. You are just one click away...

Login with Facebook Login with Google