Log in

One click and you are in

Login with Facebook Login with Google

Why sign up and log in

Guitar Tabs Explorer
Opeth bass tabs for Harlequin forest

Bass tabs

Tuning: Drop D (D A D G)

00:02:       4/4
G|----------------------|
D|------------7---------|
A|-------5--------------|
D|-12\-------------0----|
G|---------------------------------------|---------------------------------------|
D|---------------------------------------|---------------------------------------|
A|---------------------------------------|---------------------------------------|
D|-2----2--2--2--2----2--2--2--2---2--2--|-2----2--2--2--2----2--2--2--2---2--2--|

G|---------------------------------------|---------------------------------------|
D|---------------------------------------|---------------------------------------|
A|---------------6---6--6--6\------------|-6---6--6--6\--------------------------|
D|-1---1--1--1/----------------1---1--1/-|---------------1---1--1--1---1---1--1--|

G|-----------------------------------------|-------------------------------------|
D|-----------------------------------------|-------------------------------------|
A|----------------------3--5--------7--h8--|-5------------------------------5\---|
D|-0----0--0--3--5--0---------0--0---------|------7--5--4--0--5---0--3---0-------|

00:19:                                      --|
G|---------------------------------------|-------------------------------------|   |
D|---------------------------------------|-------------------------------------|   |
A|---------------------------------------|-----------------------------3/-5----|   |
D|-0----0--0--0--0----0--0--0--0---0--0--|-0----0--0--0--0----0--0--0----------|   |
                                           |
G|---------------------------------------|---------------------------------------|  |
D|---------------------------------------|---------------------------------------|  |
A|-7---7--7--7\--------------------------|-7---7--7--7\--------------------------|  |
D|---------------2---2--2--2---2---2--2/-|---------------2---2--2--2---2---2--2--|  |
                                           | x3
G|---------------------------------------|---------------------------------------|  |
D|---------------------------------------|---------------------------------------|  |
A|---------------6---6--6--6\------------|-6---6--6--6\--------------------------|  |
D|-1---1--1--1/----------------1---1--1/-|---------------1---1--1--1---1---1--1--|  |
                                           |
G|-----------------------------------------|-------------------------------------|  |
D|-----------------------------------------|-------------------------------------|  |
A|----------------------3--5--------7--h8--|-5------------------------------5\---|  |
D|-0----0--0--3--5--0---------0--0---------|------7--5--4--0--5---0--3---0-------|  |
                                          --|
01:16:
G|----------------------8---------|------------------------------7------|
D|---------------8---------8------|---------------------------7-----7---|
A|-6--------6-------6---------6---|-5-----------5----5--5--5------------|
D|------1/------------------------|------0--3---------------------------|

G|----------------------8---------|---------6--7--9----7--6-7-6--------------|
D|---------------8---------8------|-7---7------------------------7-----5--7--|
A|-6--------6-------6---------6---|---------------------------------7--------|
D|------1/------------------------|------------------------------------------|

G|----------------------8---------|-----------------------------7---|
D|---------------8---------8------|-------------------------7-------|
A|-6--------6-------6---------6---|-5-----------5----5--5-----------|
D|------1/------------------------|------0--3-----------------------|

G|----------------------8---------|---------------------------------------------|
D|---------------8---------8------|---------------------------------------------|
A|-6--------6-------6---------6---|-5--5--5--3--3--3--0--0--0--3--3--3----------|
D|------1/------------------------|-------------------------------------5---1---|

01:35:                                      --|
G|---------------------------------------|-------------------------------------|   |
D|---------------------------------------|-------------------------------------|   |
A|---------------------------------------|-----------------------------3/-5----|   |
D|-0----0--0--0--0----0--0--0--0---0--0--|-0----0--0--0--0----0--0--0----------|   |
                                           |
G|---------------------------------------|---------------------------------------|  |
D|---------------------------------------|---------------------------------------|  |
A|-7---7--7--7\--------------------------|-7---7--7--7\--------------------------|  |
D|---------------2---2--2--2---2---2--2/-|---------------2---2--2--2---2---2--2--|  |
                                           | x2
G|---------------------------------------|---------------------------------------|  |
D|---------------------------------------|---------------------------------------|  |
A|---------------6---6--6--6\------------|-6---6--6--6\--------------------------|  |
D|-1---1--1--1/----------------1---1--1/-|---------------1---1--1--1---1---1--1--|  |
                                           |
G|-----------------------------------------|-------------------------------------|  |
D|-----------------------------------------|-------------------------------------|  |
A|----------------------3--5--------7--h8--|-5------------------------------5\---|  |
D|-0----0--0--3--5--0---------0--0---------|------7--5--4--0--5---0--3---0-------|  |
                                          --|
02:13:
G|----------------------8---------|------------------------------7------|
D|---------------8---------8------|---------------------------7-----7---|
A|-6--------6-------6---------6---|-5-----------5----5--5--5------------|
D|------1/------------------------|------0--3---------------------------|

G|----------------------8---------|---------6--7--9----7--6-7-6--------------|
D|---------------8---------8------|-7---7------------------------7-----5--7--|
A|-6--------6-------6---------6---|---------------------------------7--------|
D|------1/------------------------|------------------------------------------|

G|----------------------8---------|-----------------------------7---|
D|---------------8---------8------|-------------------------7-------|
A|-6--------6-------6---------6---|-5-----------5----5--5-----------|
D|------1/------------------------|------0--3-----------------------|

G|----------------------8---------|---------------------------------------------|
D|---------------8---------8------|---------------------------------------------|
A|-6--------6-------6---------6---|-5--5--5--3--3--3--0--0--0--3--3--3----------|
D|------1/------------------------|-------------------------------------5---0---|

02:33:
G|-----------------------------|-----------------------------|
D|-----------------------------|-----------------------------|
A|-----------------------------|-----------------------------|
D|-2----2---0--2---0--2----0---|-2----2---0--5---0--3----0---| x3

G|-----------------------------|-----------------------------|--------|
D|-----------------------------|-----------------------------|--------|
A|-----------------------------|-----------------------------|--------|
D|-2----2---0--2---0--2----0---|-2----2---0--5---0--3--------|--------|

02:55:
G|---------------------------|
D|---------------------------|
A|---------------------------|
D|------14\--6\--2/--6\--0---|

  S  S P S P S  S  S P S P S   S  S P S P
G|--------x-----x-------------x-----x------|--------x-----x--------------------------|
D|-----------------------------------------|-----------------------------------------|
A|-----------------------------------------|-----------------------------------------|
D|-2---2-----x-----0---2---2-----x-----0---|-2---2-----x-----6---6--7--9---8--9--0---| x6

03:27:      2/4
G|-------------------|
D|-10-12-------------|
A|-------------------|
D|-------0---3---0---|

03:29:       4/4
G|------------7---------|-------------------------|-----------------------|----------------------------|
D|------5/-7------------|-------------------------|-----------------------|----------------------------|
A|-5--------------------|-5----0--3--5------------|-----------------------|----------------------------|
D|----------------------|---------------0---------|(0)--0---3---7---------|-7----5----8----2--2---2----|

G|--------------------|-------------------------|-----------------------|----------------------------|
D|--------------------|-------------------------|-----------------------|----------------------------|
A|-5------------------|-5----0--3--5------------|-----------------------|----------------------------|
D|------x---0---------|---------------0---------|(0)--0---3---7---------|-7----5----8----2--2---2----|

G|--------------------7---|-10---9----7---------|(7)--------------------|----------------------------|
D|----------------7-------|---------------------|-----------------------|----------------------------|
A|-5-----7----8-----------|---------------------|-----------------------|----------------------------|
D|------------------------|---------------------|-----0---3---7---------|-7----5----8----2--2---2----|

G|-7-----6-----9----|------------------|-----------------------|----------------------------|
D|------------------|-10----9----------|-----------------------|----------------------------|
A|------------------|------------------|-----------------------|----------------------------|
D|------------------|------------10----|(10)\0---3---7---------|-7----5----8----2--2---2----|

G|--------|
D|--------|
A|--------|
D|--------| x12

04:39:
G|--------|--------|--------|--------|--------|--------|--------|--------|
D|--------|--------|--------|--------|--------|--------|--------|--------|
A|-4------|-5------|-4------|--------|--------|--------|-4------|-5------|
D|--------|--------|--------|-0------|-4------|-0------|--------|--------|

05:06:     .            .
G|------------------------|------------------------|
D|------------------------|------------------------|
A|------------------------|-5---------x--5---5-----|
D|-0---------x--0---0-----|------------------------|

        .
G|-----------------------------|-----------------------------------|
D|-----------------------------|----------------------------7------|
A|-----------------------------|----------------------3/-5-----5---|
D|-0---------x--0---0-------7--|-5----0--3----2---0----------------|

        .            .
G|------------------------|------------------------|
D|------------------------|------------------------|
A|------------------------|-5---------x--5---5-----|
D|-0---------x--0---0-----|------------------------|

        .
G|-----------------------------|-------------------------------7-----|
D|-----------------------------|-------------------------5--7-----7--|
A|-----------------------------|----------------------x--------------|
D|-0---------x--0---0-------7--|-5----0--3----2---0------------------|

        .
G|------------------------|--------------------------|
D|------------------------|--------------------------|
A|------------------------|-5---------3--5--3--5-----|
D|-0---------x--0---0-----|--------------------------|

        .
G|-----------------------------|-------------------------------3--5--|
D|-----------------------------|-------------------------3--5--------|
A|-----------------------------|----------------------5--------------|
D|-0---------x--0---0-------7--|-5----0--3----2---0------------------|

        .
G|------------------------|-------------------------------|
D|------------------------|-------------------------------|
A|------------------------|-5---------3--5--x--5----3--5--|
D|-0---------0--0---0-----|-------------------------------|

        .
G|-----------------------------|-------------------------------7---|
D|-----------------------------|-------------------------5--7------|
A|-----------------------------|----------------------x------------|
D|-0---------x--0---0-------7--|-5----0--3----2---0----------------|

        .
G|------------------------|
D|------------------------|
A|------------------------|
D|-0---------x--0---0-----| x2

G|-------------------------------|----------------------|
D|-------------------------------|----------------------|
A|-------------------------------|----------------------|
D|-0----0---3--5--3--5-----5-----|-7-----5--7--5--7-----|

        .
G|------------------------|
D|------------------------|
A|------------------------|
D|-0---------x--0---0-----| x2

G|-------------------------------|-----------------------------------|
D|-------------------------------|-----------------------------------|
A|----------0--3--0--3-----3-----|-1----0----3--5-------3--5--3--5---|
D|-0----0------------------------|-----------------0-----------------|

        .
G|------------------------|
D|------------------------|
A|------------------------|
D|-0---------x--0---0-----| x2

G|-------------------------------|-------------------------------|
D|-------------------------------|-----------------5--7----------|
A|-------------------------------|-----------5--7---------7------|
D|-0----0---3--5--3--5-----5-----|-7----7--------------------7\--|

        .
G|------------------------|
D|------------------------|
A|------------------------|
D|-0---------x--0---0-----| x2

G|-------------------------------|-------------------------------------|
D|-------------------------------|-------------------------------------|
A|----------0--3--0--3-----3-----|-1----0----3--5------3--5--5--3--5---|
D|-0----0------------------------|-----------------0-------------------|

        .
G|------------------------|
D|------------------------|
A|------------------------|
D|-0---------x--0---0-----| x2

G|-------------------------------|------------------------------|
D|-------------------------------|-------0--------9-------------|
A|-------------------------------|----------7/-10--------7------|
D|-0----0---3--5--3--5-----5-----|-7------------------------7\--|

        .
G|------------------------|
D|------------------------|
A|------------------------|
D|-0---------x--0---0-----| x2

G|-------------------------------|---------------------------------|
D|-------------------------------|---------------------------------|
A|----------0--3--0--3-----3-----|-1----0----3--5-------3--5-------|
D|-0----0------------------------|-----------------0-----------0---|

07:19:
G|------------|-------------------------|----------------------|-------------------------|
D|------------|-------------------------|----------------------|-------------------------|
A|------------|-------------------------|----------------------|-------------------------|
D|-2------0---|-2-----5--5--5-------0---|-2-----2--2-------0---|-2-----5--5--5-------0---| x3

G|------------|-------------------------|----------------------|-------------------|
D|------------|-------------------------|----------------------|-------------------|
A|------------|-------------------------|----------------------|-------------------|
D|-2------0---|-2-----5--5--5-------0---|-2-----2--2-------0---|-2-----5--5--5\----|

08:12:
G|---------------------------------------|-------------------------------|
D|---------------------------------------|-------------------0--3--------|
A|----------0--3-------------------------|-------------3\-2--------------|
D|-0-h1-p0---------0--3/-7----9---10-7---|-0--3--5--6--------------------| x11

G|---------------------------------------|--------------------------------|
D|---------------------------------------|-------------------0--3---------|
A|----------0--3-------------------------|-------------3--2-----------5---|
D|-0-h1-p0---------0--3/-7----9---10-7---|-0--3--5--6---------------------|

09:32:
G|-------------------------|------------------------------------|
D|-------------------------|---------------------------5--------|
A|-4---4--5--7-------------|---------------4--5--7--8-------5---|
D|---------------7---5-----|-7----5--7--8-----------------------|

G|-----------------------------------|------------------------------------------|
D|-----------------------------------|------------------------------------------|
A|-4---4--5--7-----------------------|-------------------------------7---5-h7p5-|
D|---------------7---5----2--5----0--|-5--3--5--0---3--2--3--0---0--------------|

G|-------------------------|------------------------------------|
D|-------------------------|---------------------------5--------|
A|-4---4--5--7-------------|---------------4--5--7--8-------5---|
D|---------------7---5-----|-7----5--7--8-----------------------|

G|-----------------------------------|-------------------------------------------|
D|-----------------------------------|-------------------------------------------|
A|-4---4--5--7-----------------------|-------------------------------------------|
D|---------------7---5----2--5----0--|-5--3--5--0---3--2--3--0---0---3--5--0--1--|

9:59:
G|-----------------------------------------------|---------------------------------------------<7>-|
D|-----------------------------------------------|-------------------------------------------------|
A|-----------------------------------6--6--6--5--|(5)\---------------------------------------------|
D|(1)-0--0-----0------0--0-----0-----------------|----0--0-----x--0-----0-----x--x--0-----0--------|

G|(7)--------------------------------------|-----------------------------------------------|
D|-----------------------------------------|-----------------------------------------------|
A|-----------------------------------------|--------------------------------5---6p5h6p5----|
D|-----0--------0-----0------0------0------|----0--0------0-----0-----0--0--------------6--|

                                                   --|
G|-----------------------------------------------|---------------------------------------------<7>-|  |
D|-----------------------------------------------|-------------------------------------------------|  |
A|-----------------------------------6--6--6--5--|(5)\---------------------------------------------|  |
D|(6)-0--0-----0------0--0-----0-----------------|----0--0-----x--0-----0-----x--x--0-----0--------|  |
                                                    | x6
G|(7)--------------------------------------|-----------------------------------------------|      |
D|-----------------------------------------|-----------------------------------------------|      |
A|-----------------------------------------|--------------------------------5---6p5h6p5----|      |
D|-----0--------0-----0------0------0------|----0--0------0-----0-----0--0--------------6--|      |
                                                   --|

G|-----------------------------------------------|---------------------------------------------<7>-|
D|-----------------------------------------------|-------------------------------------------------|
A|-----------------------------------6--6--6--5--|(5)\---------------------------------------------|
D|(6)-0--0-----0------0--0-----0-----------------|----0--0-----x--0-----0-----x--x--0-----0--------|

G|(7)--------------------------------------|
D|-----------------------------------------|
A|-----------------------------------------|
D|-----0--------0-----0------0-------------|


************************************

| \  Slide down
| /  Slide up
| h  Hammer-on
| p  Pull-off
| x  Dead note
| S  Slapp
| P  Pop
| (n) Hold note past bar
| <7> Harmonic
| .  Staccato

************************************

Almost there ...

Sign in to get your own page with links to favourite songs and more. You are just one click away...

Login with Facebook Login with Google