Log in

One click and you are in

Login with Facebook Login with Google

Why sign up and log in

Guitar Tabs Explorer
Operation Ivy bass tabs for Take warning

Bass tabs with lyrics

-=-=-=-=-=- TAKE WARNING -=-=-=-=-=-
      by Operation Ivy from their self-titled album
       Tabbed by Dave Miller

-=-=-=-=-=-=-=-=-=-=-=-=-=-=-=-=-=-=-=-=-=-=-=-=-=-=-=-=-=-=-=-=-=-=-=-=-=-=-=-
  By far, one of my favorite Op Ivy tunes. These guys could do
  it all. I sure do miss 'em. Simple little song with four
  distinct parts.
  Basic Outline:
   - Intro
   - Chorus (2X)
   - Verse (1X)
   - Chorus (4X)
   - Verse (1X)
   - Chorus (4X)
   - Interlude (4X)
   - Chorus (4X)


-=-=-=-=-=-=-=-=-=-=-=-=-=-=-=-=-=-=-=-=-=-=-=-=-=-=-=-=-=-=-=-=-=-=-=-=-=-=-=-

  Intro

G||----------------------------------------
D||*---------------------------------------
A||*--2--6--4--/6--/6-----2--6--4--/6--/6--
E||----------------------------------------


  Chorus

G||-----------------------------------------
D||*-------4-4-4-4------4-6-----------------
A||*--2--2---------6--6-----4--4--/6--/6----
E||-----------------------------------------

  Take Warning..........take warning...


  Verse

G||-------------------------------------4----
D||*-------6-6-6-6----6---------4-4-4-4---4--
A||*--4--4----------4---4--2--2--------------
E||------------------------------------------

  Stand by your friends...

G||---------------------------------------4---
D||*----------6-6-6-6---6---------4-4-4-4---4-
A||*--2--4--4---------4---4--2--2-------------
E||-------------------------------------------


G||-------------------6---6-----------------4---
D||*----------6-6-6-6---6---6-------4-4-4-4---4-
A||*--2--4--4------------------2--2-------------
E||---------------------------------------------


G||---------------------------------------------
D||*----------6-6-6-6---6---------4-4-4-4-------
A||*--2--4--4---------4---4--2--2----------0--0-
E||---------------------------------------------


  Interlude

G||-------------------------------4-4--3-3--2-2--0-
D||*--2--2-2-2-2-2-0--------0-2-2------------------
A||*-----------------2--2-2------------------------
E||------------------------------------------------


-=-=-=-=-=-=-=-=-=-=-=-=-=-=-=-=-=-=-=-=-=-=-=-=-=-=-=-=-=-=-=-=-=-=-=-=-=-=-=-=-

-=-=- Lyrics -=-=-

Stand by your friends, wrong or right
Can't call that justice when it's just a stupid excuse to fight
Single out and attack the ones who got no defense
You call that a new way of thinking, I call it regresstion to ignorance

Take warning
There's a new generation coming
And we really gotta stand up to them.

Nobody's got a thing against you
Unless you've got something to prove.
We don't need no set of standards
We don't need no new set of rules.
Heard all that shit before
About stomping out any difference.
We say stand together!
(not to fight just to exist)

Take warning
Intimidation coming
And we really gotta say no to them

Enough is enough is enough!
Why don't you just ease up!
I say another beat down last night, take warning
Who's the next to hit the ground tonight? take warning.

Almost there ...

Sign in to get your own page with links to favourite songs and more. You are just one click away...

Login with Facebook Login with Google