Log in

One click and you are in

Login with Facebook Login with Google

Why sign up and log in

Guitar Tabs Explorer
Operation Ivy tabs for Bombshell

Guitar tabs

"Bombshell"  by Operation Ivy

tabbed by dan016@telerama.lm.com

Let me know what you think.

Intro:   twice
|----------------------------|
|----------------------------|
|---7------------------------|
|---7----5-----7--7----------|
|---5----5-----7--7----------|
|--------3-----5--5----------|


Verse:    A chord diagramA augmentedA few times
|----------------------------------------------------|
|-7-7-7-7-7------------------------------------------|
|-7-7-7-7-7------------------------------------------|
|-5-5-5-5-5---5-5-5-5-5----7-7-7-7-7-7-7-7-7-7-------|
|-------------5-5-5-5-5----7-7-7-7-7-7-7-7-7-7-------|
|-------------3-3-3-3-3----5-5-5-5-5-5-5-5-5-5-------|


Chorus:  A chord diagramA augmentedA few times
|--------------------------|
|--7-7-7-------------------|
|--7-7-7-------------------|
|--5-5-5---5----7----------|
|----------5----7----------|
|----------3----5----------|



Solo:  this sounds pretty close
|------------------------------------------------------|
|------------------------------------------------------|
|--2----4-----7----2----4-----7----9----2--------------|
|------------------------------------------------------|
|------------------------------------------------------|
|------------------------------------------------------|



Solo (cont)
|----------------------------------------------------|
|----------------------)----)------------------------|
|---4---7----4---7----9----9----2--------------------|
|----------------------------------------------------|
|----------------------------------------------------|
|----------------------------------------------------|

Almost there ...

Sign in to get your own page with links to favourite songs and more. You are just one click away...

Login with Facebook Login with Google