Log in

One click and you are in

Login with Facebook Login with Google

Why sign up and log in

Guitar Tabs Explorer
Yoko Ono tabs for Walking on thin ice

Guitar tabs

"Walking On Thin Ice"
by Yoko Ono

Tabbed by Dylan Rush (all my own work)

Includes chords, riffs, bassline, keyboard bit,
and attempt at the solo.

Chords/riffs:
[xx0453] Walking on... [xx0210] paying...
[xx0453] Throwing... [xx0210] air...
[xx0354] Why must... [xx0453] hard way?
[xx0210] Play the... [xx0453] heart...
[xx0453] I gave...
riff #1:
-----------
-----------
----2---2--
--0---0----
-----------
-----------

[xx0210] You gave...


riff #2:
----------
----------
----2---2-
--2---2---
----------
----------

[xx0453] ...gush of wind [riff #1]
[xx0210] ..hair [riff #2]
[xx0354] ...must we learn

riff #3:
----------
----------
----3---3-
--3---3---
----------
----------

[xx0453] ...hard way [riff #1]
[xx0210] ...play the game of life [riff #2]
[xx0453] ...heart [riff #1]


Solo (more or less, needs work, email with suggestions/improvements):

---2---13------------3---13-----------4--14-----------2--12--------
-------------------------------------------------------------------
-------------2---2-------------2---2-----------2---2----------2---2
-----------0---0-------------2---2-----------0---0----------0---0--
-------------------------------------------------------------------
-------------------------------------------------------------------

Bassline:
-----------------------------------------------------------------
-----------------------------------------------------------------
---------------------------------------------------------------3-
-----------------------------2---------------2---------------2---
----------2---------------2------3--0--0--3-------3--0--0--3-----
--0--0--3------3--0--0--3----------------------------------------

Keyboard bit (Guitar 2):

[x x 0 12 12 12] Walking on.... [x x 0 14 13 12] ...paying the...,etc.

_________________________________________________________________

Other versions of Walking On Thin Ice

Walking on Thin IceChords

Almost there ...

Sign in to get your own page with links to favourite songs and more. You are just one click away...

Login with Facebook Login with Google