Log in

One click and you are in

Login with Facebook Login with Google

Why sign up and log in

Guitar Tabs Explorer
One Ok Rock bass tabs for The way back

Bass tabs

Strings: 5
Turning: B E A D G (Standard)


Intro:

0:01
G|---------------------|
D|---------------------|
A|---------------------|
E|---------------------|
B|--2--2~------2--2~---|

Verse 1:

0:08
G|--------------------------------------------------------------------------------------------------|
D|--------6-6-6-6----------------6-6-6-6----------------6-6-6-6----------------6-6-6-6--------------|
A|--4---4----------0-0-2-2-4---4----------0-0-7-6-4---4----------0-0-2-2-4---4----------0-0-7-6-4---|
E|--------------------------------------------------------------------------------------------------|
B|--------------------------------------------------------------------------------------------------|

G|----------------------------------------------------------------------------------------------|
D|----6-6-6-6----------------6-6-6-6----------------6-6-6-6----------------6-6-6-6--------------|
A|--4----------0-0-2-2-4---4----------0-0-7-6-4---4----------0-0-2-2-4---4----------0-0-7-6-4---|
E|----------------------------------------------------------------------------------------------|
B|----------------------------------------------------------------------------------------------|


Chorus:

G|--------------------------------------------------------------------------------------------------|
D|--------------------------------------------------------------------------------------------------|
A|--4-4-4-4-4-4-4---------------------------------------2-2---2-2-4-4-4-4-4-4-4-4-2-2-2-2-2-2-2-2---|
E|----------------5-5-5-5-5-5-5-5-2-2-2-2-2-2-2-2-2-2-2-----2---------------------------------------|
B|--------------------------------------------------------------------------------------------------|

G|------------------------------------|
D|------------------------------------|
A|------------------------------------|
E|--5-5-5-5-5-5-5-5-2-2-2-2-2-2-2-2---|
B|------------------------------------|


Verse 2:

G|--------------------------------------------------------------------------------------------------|
D|--------6-6-6-6----------------6-6-6-6----------------6-6-6-6----------------6-6-6-6--------------|
A|--4---4----------0-0-2-2-4---4----------0-0-7-6-4---4----------0-0-2-2-4---4----------0-0-7-6-4---|
E|--------------------------------------------------------------------------------------------------|
B|--------------------------------------------------------------------------------------------------|

G|-----------------------------------------------------------------------------------|
D|----6-6-6-6----------------6-6-6-6----------------6-6-6-6----------------6-6-6-6---|
A|--4----------0-0-2-2-4---4----------0-0-7-6-4---4----------0-0-2-2-4---4-----------|
E|-----------------------------------------------------------------------------------|
B|-----------------------------------------------------------------------------------|

G|------------------------------|
D|------------------------------|
A|--/16-16-16-16-16-16-16-16\---|
E|------------------------------|
B|------------------------------|


Chorus:

G|--------------------------------------------------------------------------------------------------|
D|--------------------------------------------------------------------------------------------------|
A|--4-4-4-4-4-4-4---------------------------------------2-2---2-2-4-4-4-4-4-4-4-4-2-2-2-2-2-2-2-2---|
E|----------------5-5-5-5-5-5-5-5-2-2-2-2-2-2-2-2-2-2-2-----2---------------------------------------|
B|--------------------------------------------------------------------------------------------------|

G|------------------------------------|
D|------------------------------------|
A|------------------------------------|
E|--5-5-5-5-5-5-5-5-2-2-2-2-2-2-2-2---|
B|------------------------------------|

G|--------------------------------------------------------------------------------------------------------|
D|--------------------------------------------------------------------------------------------------------|
A|--4-4-4-4-4-4-4-------------------------------------------------------4-4-4-4-4-4-4-4-2-2-2-2-2-2-2-2---|
E|----------------5-5-5-5-5-5-5-5-2-2-2-2-2-2-2-2-2-2-2-2-2-2-2-2-2-2-2-----------------------------------|
B|--------------------------------------------------------------------------------------------------------|

G|------------------------------------|
D|------------------------------------|
A|------------------------------------|
E|--5-5-5-5-5-5-5-5-2-2-2-2-2-2-2-2---|
B|------------------------------------|


Bridge:

G|-------------------------------------------|
D|-------------------------------------------|
A|-------------------------------------------|
E|-------------------------------------------|
B|--2--2~------2--2~------2--2~------2--2~---|


Instrumental:

G|------------------------------------------------------------------------------------|
D|------------------------------------------------------------------------------------|
A|------------------------------------------------------------------------------------|
E|--------7-7-7-7-7-7-7-7-5-4--------7-7-7-7-7-7-7-7-9-4--------7-7-7-7-7-7-7-7-5-4---|
B|--2--2~----------------------2--2~----------------------2--2~-----------------------|

G|--------------------------------|
D|--------------------------------|
A|--------------------------------|
E|--------7-7-7-7-7-7-7-9-9-9-9---|
B|--2--2~-------------------------|


Chorus:

2:16
G|-------------------------------------------------------------------------------------------------------|
D|-------------------------------------------------------------------------------------------------------|
A|-------4-4-4-4-4-4-4---------------------------------------2-2---2-2-4-4-4-4-4-4-4-4-2-2-2-2-2-2-2-2---|
E|--9\-----------------5-5-5-5-5-5-5-5-2-2-2-2-2-2-2-2-2-2-2-----2---------------------------------------|
B|-------------------------------------------------------------------------------------------------------|

G|------------------------------------|
D|------------------------------------|
A|------------------------------------|
E|--5-5-5-5-5-5-5-5-2-2-2-2-2-2-2-2---|
B|------------------------------------|

G|--------------------------------------------------------------------------------------------------------|
D|--------------------------------------------------------------------------------------------------------|
A|--4-4-4-4-4-4-4-------------------------------------------------------4-4-4-4-4-4-4-4-2-2-2-2-2-2-2-2---|
E|----------------5-5-5-5-5-5-5-5-2-2-2-2-2-2-2-2-2-2-2-2-2-2-2-2-2-2-2-----------------------------------|
B|--------------------------------------------------------------------------------------------------------|

G|------------------------------------|
D|------------------------------------|
A|------------------------------------|
E|--5-5-5-5-5-5-5-5-2-2-2-2-2-2-2-2---|
B|------------------------------------|


Outro:

G|------------------------------------------------------------------------------------|
D|------------------------------------------------------------------------------------|
A|------------------------------------------------------------------------------------|
E|--------7-7-7-7-7-7-7-7-5-4--------7-7-7-7-7-7-7-7-9-4--------7-7-7-7-7-7-7-7-5-4---|
B|--2--2~----------------------2--2~----------------------2--2~-----------------------|

G|---------------------------------------|
D|---------------------------------------|
A|---------------------------------------|
E|--------7-7-7-7-7-7-7-9-9-9-9----------|
B|--2--2~------------------------2--2\---|


************************************

| /  Slide up
| \  Slide down
| ~  Vibrato

************************************


 ? ? ? ? ? ? ? ? ? ? ? ? ? ? ?
Band:  ONE OK ROCK


Album: 35xxxv (Deluxe Edition)

Year:  2015
 ? ? ? ? ? ? ? ? ? ? ? ? ? ? ?

Almost there ...

Sign in to get your own page with links to favourite songs and more. You are just one click away...

Login with Facebook Login with Google