Log in

One click and you are in

Login with Facebook Login with Google

Why sign up and log in

Guitar Tabs Explorer
One Ok Rock tabs for My sweet baby acoustic

Solo tabs

Intro:
e-2/4---0-2-44-4/7-5-4-0-2---2/4----------------------------|
A------------------------------------0-2-00-2-00-2-00-2-----|
D-----------------------------------------------------------|
G-----------------------------------------------------------|
B-----------------------------------------------------------|
E-----------------------------------------------------------|

e-00---0-2-4-----------2/4-4---5-7-5-7-5-7-------------|
A-----------4-5-4-0-2----------5---5---5---------------|
D------------------------------------------------------|
G------------------------------------------------------|
B------------------------------------------------------|
E------------------------------------------------------|


VERSE: E,B,Am,C#,B,Am


PRE-CHORUS: F#,Em,F#,F#,Em,F#,F#,G#,G#,Am(2x) A chord diagramBB


CHORUS: E,B,C#,Am,F#m,Am,F#m,B,E


************************************

| /  Slide up

Other versions of My Sweet Baby Acoustic

My sweet babyChords

Almost there ...

Sign in to get your own page with links to favourite songs and more. You are just one click away...

Login with Facebook Login with Google