Log in

One click and you are in

Login with Facebook Login with Google

Why sign up and log in

Guitar Tabs Explorer
One Ok Rock bass tabs for Mighty long fall

Bass tabs

Strings: 5
Turning: B E A D G (Standard)

0:06
G|----3---3-----3---3---|
D|--1---1---1-1---1-----|
A|----------------------|
E|----------------------|
B|----------------------|

G|----6---6-----6---6---|
D|--4---4---4-4---4-----|
A|----------------------|
E|----------------------|
B|----------------------|

G|----------------------|
D|----6---6-----6---6---|
A|--4---4---4-4---4-----| Stop here at 0:48
E|----------------------|
B|----------------------|

G|----------------------|
D|----4---4----3---3----|
A|--2---2----1---1------| Play 3 times
E|----------------------|
B|----------------------|

0:48
G|-------------------------------------|
D|----6---6-----6---6------------------|
A|--4---4---4-4---4----2-(8x)-1-(8x)---|
E|-------------------------------------|
B|-------------------------------------|

0:54
G|-----------------------------------------------------------------|
D|--1-(8x)---------------------------------------------------------|
A|---------2-(8x)--------------6-(8x)-2-(8x)---------------6-(8x)--|
E|----------------2(8x)-6-(8x)---------------2-(8x)-9-(8x)---------|
B|-----------------------------------------------------------------|

G|--------------------------------------------------------|
D|--------------------------------------------------------|
A|--2-(8x)--------------6-(8x)-2-(8x)---------------------|
E|---------2(8x)-6-(8x)---------------2-(8x)-9-(8x)-------|
B|--------------------------------------------------------|

1:22
G|----3---3-----3---3---|
D|--1---1---1-1---1-----|
A|----------------------|
E|----------------------|
B|----------------------|

G|----6---6-----6---6---|
D|--4---4---4-4---4-----|
A|----------------------|
E|----------------------|
B|----------------------|

G|----------------------|
D|----6---6-----6---6---|
A|--4---4---4-4---4-----| Play 2 times
E|----------------------|
B|----------------------|

G|----------------------|
D|----4---4----3---3----|
A|--2---2----1---1------| Play 1 time
E|----------------------|
B|----------------------|

1:43
G|----------------------|
D|----4---4-------------|
A|--2---2----1-(8x)-----|
E|----------------------|
B|----------------------|

1:46
G|-----------------------------------------------------------------|
D|--1-(8x)---------------------------------------------------------|
A|---------2-(8x)--------------6-(8x)-2-(8x)---------------6-(8x)--|
E|----------------2(8x)-6-(8x)---------------2-(8x)-9-(8x)---------|
B|-----------------------------------------------------------------|

G|--------------------------------------------------------|
D|--------------------------------------------------------|
A|--2-(8x)--------------6-(8x)-2-(8x)---------------------|
E|---------2(8x)-6-(8x)---------------2-(8x)-9-(7x)-9~----|
B|--------------------------------------------------------|

2:22 (Breakdown)
G|----------------------------------------------------|
D|----------------------------------------------------|
A|---------------------------4------------------------| Play 5 times
E|------------------------------7-7-7-7-6-6-6-4-------|
B|--4--4--4-4--4~-4-4--4-6-7--------------------7-6---|

2:53
G|--------------------------------------------------|
D|--------------------------------------------------|
A|---------------------------4----------------------|
E|------------------------------7-7-7-7-6-6-6-6-----|
B|--4--4--4-4--4~-4-4--4-6-7------------------------|

2:59
G|------------------------------------------------------------|
D|------------------------------------------------------------|
A|--6-(8x)-2-(8x)---------------6-(8x)-2-(8x)-----------------| Play 3 times
E|----------------2-(8x)-6-(8x)---------------2-(8x)-9-(8x)---|
B|------------------------------------------------------------|

3:36 (Last Breakdown)
G|----------------------------------------------------|
D|----------------------------------------------------|
A|---------------------------4------------------------|
E|------------------------------7-7-7-7-6-6-6-4-------|
B|--4--4--4-4--4~-4-4--4-6-7--------------------7-6---|


G|-------------------------------------------------------|
D|-------------------------------------------------------|
A|---------------------------4---------------------------|
E|------------------------------7-7-7-7-6-6-6-4----------|
B|--4--4--4-4--4~-4-4--4-6-7--------------------7-6-4~---|

ONE OK ROCK - Mighty Long Fall - 35xxxv -2015

Almost there ...

Sign in to get your own page with links to favourite songs and more. You are just one click away...

Login with Facebook Login with Google