Log in

One click and you are in

Login with Facebook Login with Google

Why sign up and log in

Guitar Tabs Explorer
One Ok Rock bass tabs for Last dance

Bass tabs

Strings: 5
Turning: Bb Db Gb Db Gb

0:01
Gb|---------------------------|
Db|---------------------------|
Gb|---------------------------| Play 11 times
Db|--5--5--5--5--9--9--7--7---|
Bb|---------------------------|

0:44
Gb|-------------------------------------|
Db|-------------------------------------|
Gb|-------------------------------------|
Db|--5--5--5--5--7--7--7--7----7-(8x)---|
Bb|-------------------------------------|

0:50
Gb|-------------------------------------------------------|
Db|-------------------------------------------------------|
Gb|------------------9------------------------------------|
Db|---------9-7-(6x)--------9-9-9-----9--------7-(8x)-----|
Bb|--7-(4x)------------5/17-------9-9---7-(7x)------------|

Gb|------------------------------------------------------------|
Db|------------------------------------------------------------|
Gb|------------------------------------------------------------|
Db|----------------------------------------------------7-(8x)--|
Gb|--5-5-5/17-17-14----14-12-12-17-17-12-12----7.-7/19---------|

Gb|------------------------------------------------|
Db|------------------------------------------------|
Gb|------------------------------------------------|
Db|--------------9-9-9-11-11-9-9-9--------7-(8x)---|
Bb|--5-5-5/17-17-------------------7-(8x)----------|

1:18
Gb|---------------------------|
Db|---------------------------|
Gb|---------------------------| Play 8 times
Db|--5--5--5--5--9--9--7--7---|
Bb|---------------------------|

1:52
Gb|-------------------------------------|
Db|-------------------------------------|
Gb|-------------------------------------|
Db|--5--5--5--5--7--7--7--7----7-(8x)---|
Bb|-------------------------------------|

Gb|-------------------------------------------------------|
Db|-------------------------------------------------------|
Gb|------------------9------------------------------------|
Db|---------9-7-(6x)--------9-9-9-----9--------7-(8x)-----|
Bb|--7-(4x)------------5/17-------9-9---7-(7x)------------|

Gb|------------------------------------------------------------|
Db|------------------------------------------------------------|
Gb|------------------------------------------------------------|
Db|----------------------------------------------------7-(8x)--|
Bb|--5-5-5/17-17-14----14-12-12-17-17-12-12----7.-7/19---------|

Gb|------------------------------------------------|
Db|------------------------------------------------|
Gb|------------------------------------------------|
Db|--------------9-9-9-11-11-9-9-9--------7-(8x)---|
Bb|--5-5-5/17-17-------------------7-(8x)----------|

2:25
Gb|----------------------------------------------|
Db|----------------------------------------------|
Gb|----------------------------------------------|
Db|--10-(16x)------------------------------------|
Bb|-----------10-(7x)-10~-(10)~-(9)~-7-7-5-5-5---|

2:32
Gb|---------------------------------------------------------------------|
Db|---------------------------------------------------------------------|
Gb|---------------------------------------------------------------------|
Db|--10-(16x)----------------------10-(16x)-----------------------------|
Bb|-----------10-(8x)--9--7--7-5-5----------10~-(10)~-(10)~-/17-(17)~---|

Gb|-----------------------------|
Db|-----------------------------|
Gb|-----------------------------|
Db|-17~-(17)~-------------------|
Bb|-----------10-(4x)-12-(8x)---|

Stop

3:04
Gb|--------------------------------------------|
Db|--------------------------------------------|
Gb|--------------------------------------------|
Db|----------9-(7x)------------9-(4x)-7-(8x)---|
Bb|--5/17-17--------5---7-(4x)-----------------|

Gb|----------------------------------------------|
Db|----------------------------------------------|
Gb|----------------------------------------------|
Db|----------------------------------------------|
Bb|--5-5-5/17-17-17-14----14-12-12-17-17-12-12---|

Gb|--------------------------------------------------------|
Db|--------------------------------------------------------|
Gb|--------------------9(4x)-7-(8x)------------------------|
Db|-------------7-(4x)--------------9-(8x)--------7-(8x)---|
Bb|--7-7-7-7/19----------------------------7-(7x)----------|

3:28
Gb|-----------------------------------------------|
Db|-----------------------------------------------|
Gb|-----------------------------------------------|
Db|--5~---(5)---5~---(5)---5~---(5)---(5)---(5)---|
Bb|-----------------------------------------------|

ONE OK ROCK - Last Dance - 35xxxv (Deluxe Edition) - 2015

Almost there ...

Sign in to get your own page with links to favourite songs and more. You are just one click away...

Login with Facebook Login with Google