Log in

One click and you are in

Login with Facebook Login with Google

Why sign up and log in

Guitar Tabs Explorer
One Ok Rock bass tabs for Ketsuraku automation

Ketsuraku Automation bass tab by One Ok Rock

One Ok Rock bass tabs for Ketsuraku automation

Bass tabs

Strings: 4
Turning: D A D G (Drop D)


[Intro]

0:30
G|----------------------------------------|
D|----------------------------------------|
A|----------------------------------------|
D|--9-9--------9-9-------5-5--------5-5---|

[Verse 1]

G|--------------------------------------------------------------------------------------|
D|--------------------------------------------------------------------------------------|
A|--------------------------------------------------------------------------------------|
D|--14\--9-9-9-9-9-9-9-9-9-9-9-9-9-9-9-9--7-7-7--5-5-5-5-5-5-5-5-5-5-5-5-5-5-5--7-7-7---|


[Pre-Chorus]

G|-------------------------------------------------------------|
D|-------------------------------------------------------------|
A|-------------------------------------------------------------|
D|--2-2-2-2-2-2-2-2--4-4-4-4-4-4-4-4--5-5-5-5-5-5-5-5--7-7-7---|

G|----------------------------------------------------------------------------|
D|----------------------------------------------------------------------------|
A|--------------------------------------------------------------12-12-12-12---|
D|--2-2-2-2-2-2-2-2--4-4-4-4-4-4-4-4--5-5-5-5-5-5-5-5--7-7-7-7----------------|


[Chorus]

G|-----------------------------------------------------------------------|
D|-----------------------------------------------------------------------|
A|-----------------------------------------------------------------------|
D|--5-5-5-5-5-5-5-5--7-7-7-7-7-7-7-7--4-4-4-4-4-4-4-4--9-9-9-9-9-9-9-9---|

G|-----------------------------------------------------------------------|
D|-----------------------------------------------------------------------|
A|-----------------------------------------------------9-9-9-9-9-9-9-9---|
D|--5-5-5-5-5-5-5-5--7-7-7-7-7-7-7-7--4-4-4-4-4-4-4-4--------------------|

G|-----------------------------------------------------------------------|
D|-----------------------------------------------------------------------|
A|-----------------------------------------------------------------------|
D|--5-5-5-5-5-5-5-5--7-7-7-7-7-7-7-7--4-4-4-4-4-4-4-4--9-9-9-9-9-9-9-9---|

G|--------------------------------------------------------------------|
D|--------------------------------------------------------------------|
A|--------------------------------------------------------------------|
D|--5-5-5-5-5-5-5-5-5-5-5-5-5-5-5-5--7-7-7-7-7-7-7-7-7-7-7-7-7-7-7-7--|


[Bridge]

G|---------------------------------------------------------------|
D|---------------------------------------------------------------|
A|---------------------------------------------------------------|
D|--9-9-9----9-9-9----9-9-9--7-7-7--5-5-5----5-5-5----5-5-5--7---|

G|---------------------------------------------------------------|
D|---------------------------------------------------------------|
A|---------------------------------------------------------------|
D|--9-9-9----9-9-9----9-9-9--7-7-7--5-5-5----5-5-5----5-5-5--7---|


[Verse 2]

G|------------------------------------------------------------------------------------------------------|
D|------------------------------------------------------------------------------------------------------|
A|------------------------------------------------------------------------------------------------------|
D|--9-9-9-9-9-9-9-9-9-9-9-9-9-9-9-9--5-5-5-5-5-5-5-5-5-5-5-5-5-5-5-5--0-0-0-0-0-0-0-0-0-0-0-0-0-0-0-0---|

G|-------------------------------------|
D|-------------------------------------|
A|-------------------------------------|
D|--2-2-2-2-2-2-2-2--4-4-4-4-4-4-4-4---|

G|------------------------------------------------------------------------------------------------------|
D|------------------------------------------------------------------------------------------------------|
A|------------------------------------------------------------------------------------------------------|
D|--9-9-9-9-9-9-9-9-9-9-9-9-9-9-9-9--5-5-5-5-5-5-5-5-5-5-5-5-5-5-5-5--0-0-0-0-0-0-0-0-0-0-0-0-0-0-0-0---|

G|-------------------------------------|
D|-------------------------------------|
A|-------------------------------------|
D|--2-2-2-2-2-2-2-2--4-4-4-4-4-4-4-4---|


[Pre-Chorus]

G|-----------------------------------------------------------------------------|
D|-----------------------------------------------------------------------------|
A|-----------------------------------------------------------------------------|
D|--2-2-2-2-2-2-2-2--4-4-4-4-4-4-4-4--5-5-5-5-5-5-5-5-5-5-5-5-5-5-5-5--7-7-7---|


G|-----------------------------------------------------------------------|
D|-----------------------------------------------------------------------|
A|------------------------------------------------------------12-12-12---|
D|--2-2-2-2-2-2-2-2--4-4-4-4-4-4-4-4--5-5-5-5-5-5-5-5--7-7-7-------------|


[Chorus]

G|-----------------------------------------------------------------------|
D|-----------------------------------------------------------------------|
A|-----------------------------------------------------------------------|
D|--5-5-5-5-5-5-5-5--7-7-7-7-7-7-7-7--4-4-4-4-4-4-4-4--9-9-9-9-9-9-9-9---|

G|-----------------------------------------------------------------------|
D|-----------------------------------------------------------------------|
A|-----------------------------------------------------9-9-9-9-9-9-9-9---|
D|--5-5-5-5-5-5-5-5--7-7-7-7-7-7-7-7--4-4-4-4-4-4-4-4--------------------|

G|-----------------------------------------------------------------------|
D|-----------------------------------------------------------------------|
A|-----------------------------------------------------------------------|
D|--5-5-5-5-5-5-5-5--7-7-7-7-7-7-7-7--4-4-4-4-4-4-4-4--9-9-9-9-9-9-9-9---|

G|--------------------------------------------------------------------|
D|--------------------------------------------------------------------|
A|--------------------------------------------------------------------|
D|--5-5-5-5-5-5-5-5-5-5-5-5-5-5-5-5--7-7-7-7-7-7-7-7-7-7-7-7-7-7-7-7--|


[Instrumental]

G|-----------------------------------------------------|
D|-----------------------------------------------------|
A|-----------------------------------------------------|
D|--9-7-9-0---9-7-7-9-7-0------5-4-5-0---5-4-4-0-4-7---|

G|--------------------------------------------------|
D|--------------------------------------------------|
A|--------------------------------------------------|
D|--9-7-9-0--9-7-7-9-7-0-----5-4-5-0--5-4-4-0-4-7---|

G|-------------------------------------------------|
D|-------------------------------------------------|
A|-------------------------------------------------|
D|--9-7-9-0--9-7-7-9-7-0----5-4-5-0--5-4-4-0-4-7---|

G|------------------------------------------------|
D|------------------------------------------------|
A|------------------------------------------------|
D|--9-7-9-0--9-7-7-9-7-0---5-4-5-0--5-4-4-0-4-7---|

G|---------------------------------------------------------------------------------------------|
D|---------------------------------------------------------------------------------------------|
A|---------------------------------------------------------------------------------------------|
D|--9-7-9-0--9-7-9-0--9-7-9-0--9-7-9-0-9-7-9-0-9-7-9-0-9-7-9-0---5~--4~--0-0-0-11-11-11--9~\---|


[Bridge]

3:00
G|-----------------------------------------|
D|-----------------------------------------|
A|-----------------------------------------|
D|--14\--5-5-5-5-5-5-5-5-5-5-5-5-5-5-5-5---|


[Chorus]

G|----------------------------------------------------------------------------|
D|----------------------------------------------------------------------------|
A|----------------------------------------------------------------------------|
D|--14\--5-5-5-5-5-5-5-5--7-7-7-7-7-7-7-7--4-4-4-4-4-4-4-4--9-9-9-9-9-9-9-9---|

G|-----------------------------------------------------------------------|
D|-----------------------------------------------------------------------|
A|-----------------------------------------------------9-9-9-9-9-9-9-9---|
D|--5-5-5-5-5-5-5-5--7-7-7-7-7-7-7-7--4-4-4-4-4-4-4-4--------------------|

G|-----------------------------------------------------------------------|
D|-----------------------------------------------------------------------|
A|-----------------------------------------------------------------------|
D|--5-5-5-5-5-5-5-5--7-7-7-7-7-7-7-7--4-4-4-4-4-4-4-4--9-9-9-9-9-9-9-9---|

G|--------------------------------------------------------------------|
D|--------------------------------------------------------------------|
A|--------------------------------------------------------------------|
D|--5-5-5-5-5-5-5-5-5-5-5-5-5-5-5-5--7-7-7-7-7-7-7-7-7-7-7-7-7-7-7-7--|


[Outro]

G|---------------------------------------------------------------|
D|---------------------------------------------------------------|
A|---------------------------------------------------------------|
D|--9-9-9----9-9-9----9-9-9--7-7-7--5-5-5----5-5-5----5-5-5--7---|

G|---------------------------------------------------------------------|
D|---------------------------------------------------------------------|
A|---------------------------------------------------------------------| [End]
D|--9-9-9----9-9-9----9-9-9--7-7-7--5-5-5----5-5-5----5-5-5-5-5--5~\---|


************************************

| \  Slide down
| ~  Vibrato

************************************


 ? ? ? ? ? ? ? ? ? ? ? ? ? ? ?
Band:  ONE OK ROCK


Album: The Beginning - Single

Year:  2012
 ? ? ? ? ? ? ? ? ? ? ? ? ? ? ?

Almost there ...

Sign in to get your own page with links to favourite songs and more. You are just one click away...

Login with Facebook Login with Google