Log in

One click and you are in

Login with Facebook Login with Google

Why sign up and log in

Guitar Tabs Explorer
One Ok Rock bass tabs for Kasabuta

Bass tabs

Strings: 4
Turning: Db Ab Db Gb (Eb Drop Db)


Note: Bass start at 0:41 which is a Chorus part.
Chorus:

0:41
Gb|---------------------------------------------------------------------------|
Db|---------------------------------------------------------------------------|
Ab|--------3--3--5--5-----------------3--3--5--5-----------------3--3--5--5---|
Db|--2--2--------------5-5-4-4--2--2--------------5-5-4-4--2--2---------------|

Gb|--------------------------|
Db|--------------------------|
Ab|--3--3--3--3--5--5----5---|
Db|--------------------------|


Verse 1:

Gb|--------------------------------------------------------|
Db|--------------------------------------------------------|
Ab|--------3--3--5--5--5--5--------3--3--5--5----5---------|
Db|--2--2--------------------2--2-------------------/5-4---|

Gb|-----------------------------------------------------|
Db|-----------------------------------------------------|
Ab|--------3--3----------------------3--3---------------|
Db|--2--2--------5--5--4--4----2--2--------5--5--4--4---|

Pre-Chorus:

Gb|------------------------------------------------|
Db|------------------------------------------------|
Ab|--------5--5--3--3--3--3--------5--5--4--4--3---|
Db|--2--2--------------------2--2------------------|


Chorus:

1:45
Gb|------------------------------------------------------------------------------------|
Db|------------------------------------------------------------------------------------|
Ab|--------3--3--5--5-----------------3--3--5--5-----------------3--3--5--5------------|
Db|--2--2--------------5-5-4-4--2--2--------------5-5-4-4--2--2--------------5-5-4-4---|

Gb|---------------------------|
Db|---------------------------|
Ab|--3--3--3--3--5--5--5--5---|
Db|---------------------------|


Verse 2:

Gb|---------------------------------------------------------------------------|
Db|---------------------------------------------------------------------------|
Ab|--------3--3--------5--5--------3--3--------5--5--------3--3--------5--5---|
Db|--2--2--------5--5--------2--2--------5--5--------2--2--------4--4---------|

Gb|---------------------------|
Db|---------------------------|
Ab|--3--3--3--3--5--5--5--5---|
Db|---------------------------|


Instrumental:

2:37
Gb|---------------------------------------------------|
Db|---------------------------------------------------|
Ab|--------3--3--------5--5--------3--3--------5--5---|
Db|--2--2--------5--5--------2--2--------5--5---------|


Bridge:

Gb|--------------------------------------------------|
Db|--------------------------------------------------|
Ab|--3--3--3--3--5--5--5--5--3--3--3--3--5-5-5-5-5---|
Db|--------------------------------------------------|


Chorus:

3:03
Gb|------------------------------------------------------------------------------------|
Db|------------------------------------------------------------------------------------|
Ab|--------3--3--5--5-----------------3--3--5--5-----------------3--3--5--5------------|
Db|--2--2--------------5-5-4-4--2--2--------------5-5-4-4--2--2--------------5-5-4-4---|

Gb|------------------------------------------------|
Db|------------------------------------------------|
Ab|--3--3--3--3--5--5--5--5--3--3-3/17-17-17-17\---|
Db|------------------------------------------------|

Gb|------------------------------------------------------------------------------------|
Db|------------------------------------------------------------------------------------|
Ab|--------3--3--5--5-----------------3--3--5--5-----------------3--3--5--5------------|
Db|--2--2--------------5-5-4-4--2--2--------------5-5-4-4--2--2--------------5-5-4-4---|

Gb|---------------------------|
Db|---------------------------|
Ab|--3--3--3--3--5--5----5\---|
Db|---------------------------|


End: 4:21


************************************

| /  Slide up
| \  Slide down

************************************


 ? ? ? ? ? ? ? ? ? ? ? ? ? ? ?
Band:  ONE OK ROCK


Album: Deeper Deeper/Nothing Helps - Single

Year:  2013
 ? ? ? ? ? ? ? ? ? ? ? ? ? ? ?

Almost there ...

Sign in to get your own page with links to favourite songs and more. You are just one click away...

Login with Facebook Login with Google